tablaturas, partituras y acordes para guitarra
Busca por banda/artista:
 
y/o título de la canción:
A B C D E F G H I J K L M N O P Q R S T U V W X Y Z 0 1 2 3 4 5 6 7 8 9 / Top 100 tabs
Categorías
Usuarios
usuario:
Darse de alta
password:
Artistas más visitados
Publicidad
TOP acordes y tablaturas de Cky
:: Fat f - Cky


Estás en: Inicio > Letra C > Acordes y tablaturas de Cky > 96 bitter better things
96 bitter better things
de Cky
Puntúa este acorde/tab:      
(0.7/5)
Reportar este acorde/tab
  Añadir a tus favoritos
  Imprimir

Artist: Camp Kill Yourself 
Title: 96 Quite Bitter Things 
Album: Camp Vol. 1 
Transcribed by: violent S 
Email: ravengx@aol.com

WARNING :You may know this song buy the Mtv jackass song when there doing the shopping carts
yeah Ha Ha its funny now till someone gets hurt so dont go out and go in some shopping carts and 
do that while your friend has his guitar playin this song that he learnd off my tabs beacuse 
iam not getting sued so the waring is that this song might just make you want to do 
some bad things  PLAYING THIS SONG CAN RESALT IN GETTING HURT OR MABIE DEATH 

PLAY THIS SONG AT YOUR OWN RISK


Tuned down one half step (Eb-Ab-Db-Gb-Bb-Eb) 

Riffs IN ORDER


 Intro
------------------------------------------------------------------------------ 
------------------------------------------------------------------------------ 
------------------------------------------------------------------------------ 
-----9-------------9-10-9-------------10/12-10-9-7----7/-9-------------------- 
-7-10---7----7-10---------10-9-----10-----------------------10---------------- 
--------0-----------------------8--------------------------------------------- 
                                                                               
 
Verse Guitar 1 

------------------------------------------------------------------------------ 
------------------------------------------------------------------------------ 
------------------------------------------------------------------------------ 
-2--2--2------6--6--6--------------------------------------------------------- 
-2--2--2------6--6--6--------------------------------------------------------- 
-0--0--0----0-4--4--4--------------------------------------------------------- 
                                                                               
Verse Guitar 2 
------------------------------------------------------------------------------ 
------------------------------------------------------------------------------ 
------------------------------------------------------------------------------ 
-9--9--9------6--6--6--------------------------------------------------------- 
-7--7--7------4--4--4--------------------------------------------------------- 
-0--0--0----0----------------------------------------------------------------- 
                                                                               
Bridge 1 
-0-0-0-0-0-0------------------------------------------------------------------ 
-0-0-0-0-0-0------------------------------------------------------------------ 
-0-0-0-0-0-0------------------------------------------------------------------ 
-9-9-9-9-7-7------------------------------------------------------------------ 
-7-7-7-7-5-5------------------------------------------------------------------ 
-0-0-0-0-0-0------------------------------------------------------------------ 
                                                                               
Bridge 2
------------------------------------------------------------------------------ 
------------------------------------------------------------------------------ 
------------------------------------------------------------------------------ 
-7--7--7--127-9--2--2----5--5--5--127-9--2--2------------------------------- 
-5--5--5--105-7--2--2----3--3--3--105-7--2--2------------------------------- 
------------------0--0--0------------------0--0------------------------------- 


		   
AcordesyTabs.com © 2008 Acordes y Tablaturas para guitarra. Tabs and Chords for guitar. Aviso Legal - Contacto
El uso de este sitio está sujeto a la aceptación de los términos y condiciones (33 usuarios online)