tablaturas, partituras y acordes para guitarra
Busca por banda/artista:
 
y/o título de la canción:
A B C D E F G H I J K L M N O P Q R S T U V W X Y Z 0 1 2 3 4 5 6 7 8 9 / Top 100 tabs
Categorías
Usuarios
usuario:
Darse de alta
password:
Artistas más visitados
Publicidad
TOP acordes y tablaturas de Héroes del Silencio


Malas Intenciones
de Héroes del Silencio
Puntúa este acorde/tab:      
(0.2/5)
Reportar este acorde/tab
  Añadir a tus favoritos
  Imprimir
 Dato: Dom, 15 jul, 2001, 7:00:00 PM
Por: Omar Vidal

  Malas Intenciones - Bajo

Héroes del Silencio
Música: P. Andreu, E. Bunbury, J. Cardiel & J. Valdivia
Bajista: Joaquín Cardiel
Álbum: Senderos de Traición (1990)

h: hammer on
p: pull off
/: slide up
: slide down

(Acabando el Intro de la guitarra)
  
G|----------------|
D|----------------|
A|----------------|
E|--------5------|

  INTRO

     Bm                Em     A
G|------------------------------------------|
D|---------------------2---2----------------| Repite
A|---2----2--2----2-2---------0--0---2/54--|   3x
E|------------------------------------------|     

  Luego...
     
     Bm                F#m     E
G|----------------------------------|
D|------------------0--4------------|
A|---2----2--2----2------------7---|
E|----------------------------------|

   VERSO 

    Bm               G       A            Bm               G       A
G|-------------------------------------|--------------------------------------|
D|-------------------------------------|--------------------------------------| 
A|--2----2--2----2-0------2--0----0-0--|--2----2--2----2-0------2--0h2-/5-4--|   
E|-------------------3-----------------|-------------------3------------------|

    Bm               G       A            Bm                F#m     
G|-------------------------------------|--------------------------------------|
D|-------------------------------------|---------------0h2--4---2h4--2--0-----|
A|--2----2--2----2-0------2--0----0-0--|--2----2--2------------------------4--|
E|-------------------3-----------------|--------------------------------------|

   PUENTE 1
   Es igual a el VERSO, pero la última parte (Bm - F#m) se cambia por esta :

    Bm                F#m
G|-------------------------------------|
D|-------------------------------------|
A|--2----2--2--------------------------|
E|---------------72--2-2-2-2-2-2-2-2--|
  
  ESTRBILLO

    F#m                 Bm       A        F#m             A
G|---------------------------------------------------------------------------|
D|---------------------------------------------------------------------------| Repite
A|----------------------2--2-----0--0---------------------0-0--0--0-0--0-----|   2x
E|--2----2--2--2--2--2--------2--------0--2-2--2--2-2--2------------------0--|


  INTRO

  VERSO 

  ESTRIBILLO

  PUENTE 2

     Bm                Em     A               Bm                F#m    E
G|------------------------------------------|------------------------------------|
D|---------------------2---2----------------|----------------0--4----------------|
A|---2----2--2----2-2---------0--0---4/54--|-2----2--2----2-----------754--0--|
E|------------------------------------------|------------------------------------|


  SOLO

     Bm                Em                   A       F#m     A            
G|---------------------------------------------------------------------------|
D|---------------------2---2-------------------------------------------------| Repite
A|---2----2--2----2-2---------0--0---2/54-------------2h4--0----0--0---5h7--|   2x
E|------------------------------------------2----2--2---------2--------------|

      D                      A               D                   ?
G|-----------------------------------------|-------------------------------------|
D|-----------------------------------------|-------------------------------------|
A|---5--5---5---5--5---5-------------5--7--|-5--5---5---5--5---5-----------------|
E|-----------------------5---3--5-5--------|---------------------5-5-5-5-5-5-2--|


  ESTRIBILLLO

  OUTRO
  Igual que el VERSO, sustituyendo la última parte (Bm - F#m) por esta :


G|------------------------------------------|
D|--------------------2--2--0h2p0-----------|
A|---2----2--2----2-2--------------4--0--2--|
E|------------------------------------------|

 Y listo!!!!!

La verdad es que no me tomó tanto tiempo hacer este tab. No soy especialista en el bajo, 
pero sé tocarlo más o menos. Si necesitas algún tab, ya sea de bajo o de guitarra o 
correcciones, dudas y comentarios, eres bienvenido. 

Omar
  Vidal - ometal666@hotmail.com                  Viva el Rock | Paz
		   
AcordesyTabs.com © 2008 Acordes y Tablaturas para guitarra. Tabs and Chords for guitar. Aviso Legal - Contacto
El uso de este sitio está sujeto a la aceptación de los términos y condiciones (11 usuarios online)