tablaturas, partituras y acordes para guitarra
Busca por banda/artista:
 
y/o título de la canción:
A B C D E F G H I J K L M N O P Q R S T U V W X Y Z 0 1 2 3 4 5 6 7 8 9 / Top 100 tabs
Categorías
Usuarios
usuario:
Darse de alta
password:
Artistas más visitados
Publicidad
TOP acordes y tablaturas de Fun people


Estás en: Inicio > Letra F > Acordes y tablaturas de Fun people > Mala influencia
Mala influencia
de Fun people
Puntúa este acorde/tab:      
(0.7/5)
Reportar este acorde/tab
  Añadir a tus favoritos
  Imprimir
Transcripción: Marcelo Villar (Río Cuarto, Córdoba)

ACORDES: Am    577555  o  002210  
         F     133211  
         C     335553  o  032010
         G     355433  o  320003
         A5    577XXX
         F5    133XXX
         C5    0355XX
         G5    355XXX

INTRODUCCIÓN: Am  F  C  G con guitarra acustica


Am        F
Disappear my days
C        G
Disappear my lights
Am         F      C
Disappear my smile disappear
G
My love 
Am            F        C        G
I don't wanna be victim of a Bad Influence
Am       F         C             G 
Because I wanna run to the hills to see
Am        F                    C        G
With the sun the born of our flower, my love.
Am            F        C        G
I don't wanna be victim of a Bad Influence
Am   F         C    G
Bad World, Bad, Bad Influence

 
SOLO DE GUITARRA:
1|-5------------------------------------------------
2|-8/10-5-6--8-8-6-5---5/6-5--5-5-5----6-5--6-5---5-
3|---------------------7-------------5-----------7--
4|--------------------------------------------------
5|--------------------------------------------------
6|--------------------------------------------------


1|-------------------------------------------
2|-------------------------------------------
3|-7-5-7-5-4-5-4-----------------------------
4|------------------7-5-3-2------------------
5|--------------------------5-7-5-3-2-3-2----
6|-----------------------------------------5-



MALA INFLUENCIA (traducción)
 
Desaparecen mis dias, desaparecen mis noches,
deseparece mi sonrisa, desaparece mi amor, 
no quiero ser una victima de una mala influencia, 
porque yo quiero correr por las praderas 
para ver junto al sol el nacimiento de nuestra flor, mi amor.


Cualquier duda cosulta o sugerencia: marcelovillar@uole.com
		   
AcordesyTabs.com © 2008 Acordes y Tablaturas para guitarra. Tabs and Chords for guitar. Aviso Legal - Contacto
El uso de este sitio está sujeto a la aceptación de los términos y condiciones (24 usuarios online)