tablaturas, partituras y acordes para guitarra
Busca por banda/artista:
 
y/o título de la canción:
A B C D E F G H I J K L M N O P Q R S T U V W X Y Z 0 1 2 3 4 5 6 7 8 9 / Top 100 tabs
Categorías
Usuarios
usuario:
Darse de alta
password:
Artistas más visitados
Publicidad
TOP acordes y tablaturas de Duncan Dhu


Rosa Gris
de Duncan Dhu
Puntúa este acorde/tab:      
(0.2/5)
Reportar este acorde/tab
  Añadir a tus favoritos
  Imprimir
   INTRODUCCION 
  
E   Fm#  Gm#   B


punteo: (al compas de la cancion)

E|--7--9-7--5--4---7--4--2--4- -7--5--4--7-- 7--9--7--  9----------|   
B|-----------------------------------------------------------7-----|
G|-----------------------------------------------------------------|   
D|-----------------------------------------------------------------|   
A|-----------------------------------------------------------------|   
E|-----------------------------------------------------------------|   


E|-12---11----9-----------7-----5---4--7--------|   
B|--------------------9------------------------------|   
G|---------------------------------------------------|   
D|---------------------------------------------------|   
A|---------------------------------------------------|   
E|---------------------------------------------------|   



1)
         E                Fm#
De rosa gris mirada dulce labios de cristal 
   Gm#                    B7
y la piel que no toque blanca como su intencion
    E                    Fm#
sin saber las reglas de la calle del amor
      Gm#                 B7
no se puede filtrear con la pasion de la ciudad

2)
      Fm#              A             E      
cada vida la ilusion se va como el viejo tren
           B7 
que no volvio
        Fm#             A              E 
por la calle del amor de va donde sin pensar 
       B7
se perdera

(punteo DEL INTRO)

1)y una vez la vida trajo la oportunidad
de volar a un mas alla de la calle del amor
y al notar la seda de princesa al acariciar
a la chica de cristal a la fria rosa gris

2)Su piel se endurecio y su voz ya no se quebro al suspirar
la mirada aprendio a pedir lo que alguna vez no se atrevio

REPETIR INTRO...

================================================
Transcripcion de Jorge Cuadra S.
(oci06@rree.gob.pe)
		   
AcordesyTabs.com © 2008 Acordes y Tablaturas para guitarra. Tabs and Chords for guitar. Aviso Legal - Contacto
El uso de este sitio está sujeto a la aceptación de los términos y condiciones (20 usuarios online)