tablaturas, partituras y acordes para guitarra
Busca por banda/artista:
 
y/o título de la canción:
A B C D E F G H I J K L M N O P Q R S T U V W X Y Z 0 1 2 3 4 5 6 7 8 9 / Top 100 tabs
Categorías
Usuarios
usuario:
Darse de alta
password:
Artistas más visitados
Publicidad
TOP acordes y tablaturas de Green day


Estás en: Inicio > Letra G > Acordes y tablaturas de Green day > Sassafras roots
Sassafras roots
de Green day
Puntúa este acorde/tab:      
(0.2/5)
Reportar este acorde/tab
  Añadir a tus favoritos
  Imprimir

Song: Sassafras Roots
Artist: Green Day
Album: Dookie

JAH, the person that tabbed this song before me was
pretty close but here the correct way. It looks
intimidating but sit down with it and the song and
youl get it.

Tuning: down half step (DGBA)

Intro
G:--------------
D:--------------
A:-5-----------
E:------5---0--

Verse
G:-----------------------------------------------------------------------------
D:---------------------------------------------7p6-----------9-----9/119--
A:-0---0---0-0-0-0---7--5--4-4--5--5-5--------5---7-7-----7-----------
E:-----------------------------------------------------------------------------

G:-----------------------------------------------------------------------
D:--------------------------------------------7p6-------7h9---7h9---
A:-0---0---0-0-0-0---7--5--4-4--5--5-5-------5--7------7---------
E:-----------------------------------------------------------------------

Chorus
G:----------------------------------------------------------------
D:----------------------------------------------------6h7-6h7--(play fast)
A:--5 (repeat a lot)------5 (repeat alot)------5--------------
E:-------0 (repeat a lot)-----0 (repeat alot)------------------

G:-------------------------------------------------------
D:-------------------------------------------------------
A:-------------------------------------------------------
E:--5 (repeat a lot)

		   
AcordesyTabs.com © 2008 Acordes y Tablaturas para guitarra. Tabs and Chords for guitar. Aviso Legal - Contacto
El uso de este sitio está sujeto a la aceptación de los términos y condiciones (37 usuarios online)