tablaturas, partituras y acordes para guitarra
Busca por banda/artista:
 
y/o título de la canción:
A B C D E F G H I J K L M N O P Q R S T U V W X Y Z 0 1 2 3 4 5 6 7 8 9 / Top 100 tabs
Categorías
Usuarios
usuario:
Darse de alta
password:
Artistas más visitados
Publicidad
TOP acordes y tablaturas de Platero y Tú


Maldita mujer
de Platero y Tú
Puntúa este acorde/tab:      
(0.5/5)
Reportar este acorde/tab
  Añadir a tus favoritos
  Imprimir
[------------------------------------------------------------------------------
[------------------------------------------------------------------------------
[----5p-7------5--7---7b----5-----------------------------------------------
[-----------------------------------5----7-------------------------------------
[---------------------------------------------3---5---5b---3------------------
[--------------------------------------------------------------------------------

                                  c          c  a      /    c             c  d
[-----------------------------------
[-----------------------------------
[-----7b--7---5--7--5-----------		x3
[-----------------------------------
[-----------------------------------
[-----------------------------------


[------------------------------/--------------22---20---19--17---15p-17-----------/-----------------------------------------]
[------------------------------/--19b--17------------------------------------17------/-12p-13h-12--------------------------]
[--7b--7---5---7------------/---------------------------------------------------------/------------------14--12b--------------]
[---------------------5---7---/---------------------------------------------------------/-----------------------------12--14-----]
[------------------------------/---------------------------------------------------------/--------------------------------------12-]
[------------------------------/---------------------------------------------------------/------------------------------------------]


[----------------------------------------------------------------------------------------]
[---15b-15b-15b--13--12------------------------------------------------------------------]
[-------------------------------14--12---------------------------------------------------]
[-----------------------------------------14-----19h-17p-19h-----------------------------]
[------------------------------------------------------------------17--15--12------------]
[----------------------------------------------------------------------------------12----]


[--19b-17-15-------15-----
[----------------17--- -------  	
[-----------------------------
[-----------------------------
[-----------------------------
[------------------------------

			
[-------------0------------------------2-------------------------0------------------------2---------------------------------
[----------1-----1----------------3------3-------------------1-----1-----------------1------1-----------------------------
[-------2-----------2---------2--------------2-----------2-------------2---------2--------------2---------1----------------
[----2-----------------2---0---------------------0---2--------------------2---0---------------------0-----2-----------------
[-------------------------------------------------------------------------------------------------------------2------------------
[-------------------------------------------------------------------------------------------------------------0------------------





			Yo canto blues					

           				[--------------------------------------------
					[--------------------------------------------
					[---5----2----------------------------------
					[---5----2----------------------------------
					[---3----0-----0--2---3-------------------
					[--------------------------------------------

			Cuando pienso que algo he perdido

								[-------------0--1-1-2-2-3---
								[---3b---3---------------------
								[-------------------------------
								[--------------------------------
								[-------------------------------
								[-------------------------------
			Yo canto blues
			

					[--------------------------------------------
					[--------------------------------------------
					[---5----2----------------------------------
					[---5----2----------------------------------
					[---3----0-----0--2---3-------------------
					[--------------------------------------------

			porque se que ya no estas conmigo 
								[---------------------------
								[--15b--13--15-----------
								[------------------14--17--
								[----------------------------
								[----------------------------
								[----------------------------

					G	D	Am
			Y canto blues,porque el blues soy yo!



			mi corazon

			es un charco en mitad del camino

			tu corazon se ha alegrado brindando con vino

			y aunque estas con el se que estas conmigo

[-------------0------------------------2-------------------------0------------------------2----------------------------------
[----------1-----1----------------3------3-------------------1-----1-----------------1------1------------------------------
[-------2-----------2---------2--------------2-----------2-------------2---------2--------------2---------1--1---1--1----
[----2-----------------2---0---------------------0---2--------------------2---0---------------------0-----2--2---2--2-----
[-------------------------------------------------------------------------------------------------------------2--2---2--2------
[-------------------------------------------------------------------------------------------------------------0--0---0--0------

	C	    Dm             G       Dm          C	
	Maldita mujer,me mordiste el corazon

	C           G         Am                 Dm      E         Am	
	Aun llevo veneno y ahora vivo sin control

	C                 Dm                        G              Dm       C
	Benditas las drogas que me ayudan a olvidar




[-------------------------------------------------------------------------8--9-----8--7--5------------------------------------
[---------------------------------------------------------8--10--8b-------------------------5--8--5-----8--5-----5-8-5----
[-----7b--5--7--5-----4--5--7--5--4------5--7--5-----------------9--------------------------------7--------7------------
[-----------------------------------------5-------------------------------------------------------------------------------------
[--------------------------------------------------------------------------------------------------------------------------------
[----------------------------------------------------------------------------------------------------------------------------------


[------------------------17--20--17-------17--20--22b--20--17-17b-17b-17b-----------------
[---------------------------------------20------------------------------------------------------------
[--7---7--5--------------------------------------------------------------------------------------------
[--------------7-------------------------------------------------------------------------------------
[---------------------------------------------------------------------------------------------------
[---------------------------------------------------------------------------------------------------


[---------------------------------------------------------------------------------------------------------------5--6--4-
[-15-13-15---------------------------------------------------------------------------------------------5--7-----------
[-------------14--?--14-----------------------------------------------------------------------5--6--7-----------------
[--------------------------19--17--14------------------------------------------------5--6--7--------------------------
[-----------------------------------------17--15--12--0--2--3--5-----------5--6--7-----------------------------------
[---------------------------------------------------------------------------------------------------------------------------

			Una cancion

[---------------------------
[----------------------------										
[-----7b-7b--7b----------
[---7b--7b---7b--------------
[----------------------------
[----------------------------


			yo podria cantarte al oido

			solo una cancion
	
			una y tu volverias conmigo
					G       Dm        Am
			Pero es tarde ya,y tu me has perdido

[-------------0------------------------2-------------------------0------------------------2----------------------------------
[----------1-----1----------------3------3-------------------1-----1-----------------1------1------------------------------
[-------2-----------2---------2--------------2-----------2-------------2---------2--------------2---------1--1---1--1----
[----2-----------------2---0---------------------0---2--------------------2---0---------------------0-----2--2---2--2-----
[-------------------------------------------------------------------------------------------------------------2--2---2--2------
[-------------------------------------------------------------------------------------------------------------0--0---0--0------

	C	    Dm             G       Dm          C	
	Maldita mujer,me mordiste el corazon

	C           G         Am                 Dm      E         Am	
	Aun llevo veneno y ahora vivo sin control

	C                 Dm                        G              Dm       C
	Benditas las drogas que me ayudan a olvidar





Dedicada a todas esas mujeres que han intentado joderme: nunca lo conseguireis
ya sabes si estas de bajon pilla la guitarra y hundete mas con este tema
ah! si algun@ intenta seguir jodiendo: MOTXALO!
		   
AcordesyTabs.com © 2008 Acordes y Tablaturas para guitarra. Tabs and Chords for guitar. Aviso Legal - Contacto
El uso de este sitio está sujeto a la aceptación de los términos y condiciones (23 usuarios online)