tablaturas, partituras y acordes para guitarra
Busca por banda/artista:
 
y/o título de la canción:
A B C D E F G H I J K L M N O P Q R S T U V W X Y Z 0 1 2 3 4 5 6 7 8 9 / Top 100 tabs
Categorías
Usuarios
usuario:
Darse de alta
password:
Artistas más visitados
Publicidad
TOP acordes y tablaturas de Paiko


Rubia
de Paiko
Puntúa este acorde/tab:      
(1.1/5)
Reportar este acorde/tab
  Añadir a tus favoritos
  Imprimir
                 INTRO

E|-1-1-1-1--1-1-1-1--1-1-1-1--0-0-0-0-0--|
B|-3-3-3-3--2-2-2-2--1-1-1-1--1-1-1-1-1--|
G|-2-2-2-2--2-2-2-2--2-2-2-2--2-2-2-2-2--|    x4
D|---------------------------------------|
A|---------------------------------------|
E|---------------------------------------|

Durante la musica es solo el bajo y en el coro entra de
nuevo la guitarra y repite lo mismo que en el INTRO

Por qué me dejaste
tirado en la calle?
Tu suave figura
me sedujo a matar
y con sutileza
te aprendí a amar

CORO
Rubia... Rubia espumante

El viernes pasado
te vi en el asado
Estuve contigo
me quedé a tu lado
Escuchaste mis penas
te quiero mi nena

CORO
Rubia... Rubia espumante

                  FINAL 
|---x-x-x-x-x-x-x-x-x--x-x-x-x-x-x------|
|---x-x-x-x-x-x-x-x-x--x-x-x-x-x-x------|
|---0-4-5-4-0-4-5-7-0--7-5-0-5-0-7------|
|---0-2-3-2-0-2-3-5-0--5-3-0-5-0-7------|
|----------------------------3-0-5------|
|---------------------------------------|
                  
¡AGUANTE OADEN!
¡AGUANTE EL ROCK PARAGUAYO!
		   
AcordesyTabs.com © 2008 Acordes y Tablaturas para guitarra. Tabs and Chords for guitar. Aviso Legal - Contacto
El uso de este sitio está sujeto a la aceptación de los términos y condiciones (19 usuarios online)