tablaturas, partituras y acordes para guitarra
Busca por banda/artista:
 
y/o título de la canción:
A B C D E F G H I J K L M N O P Q R S T U V W X Y Z 0 1 2 3 4 5 6 7 8 9 / Top 100 tabs
Categorías
Usuarios
usuario:
Darse de alta
password:
Artistas más visitados
Publicidad
TOP acordes y tablaturas de Goo Goo Dolls


Big Machine
de Goo Goo Dolls
Puntúa este acorde/tab:      
(0.4/5)
Reportar este acorde/tab
  Añadir a tus favoritos
  Imprimir

Title: Big Machine
Artist: Goo Goo Dolls
Album: GutterFlower

Instrument: Guitar

Tabbed by: Patrick Lemay (wave_97@hotmail.com)

Tuning: 1/2 Step Down (Eb Ab Db Gb Bb Eb)

This is a sweet song from the Goo Goo dolls its for sure the best on the GutterF
the song is farely simple I hope everything is clear and easy to understand

Have Fun 

Intro/verse

Eb|-------------------------------------------||
Bb|--------------------------------4-4-4--4-4-||
Gb|-8/9-9-9--8-8-x-x-8/9-9-9--8-8--4-4-4--4-4-||
Db|-9-9-9-9--9-9-x-x-9-9-9-9--9-9--6-6-6--6-6-||
Ab|-7-7-7-7--7-7-x-x-7-7-7-7--7-7--6-6-6--6-6-||
Eb|--------------------------------4------4---||


Eb|---------------------------------------------------||
Bb|---------------------------------------------------||
Gb|-8/9-9-9--8-8-x-x-8/9-9-9--8-8---------------------||
Db|-9-9-9-9--9-9-x-x-9-9-9-9--9-9--4--2-2--6--4-4-2-2-||
Ab|-7-7-7-7--7-7-x-x-7-7-7-7--7-7--4--2-2--6--4-4-2-2-||
Eb|--------------------------------2--0-0--4--2-2-0-0-||

Chorus

Eb|---------------------------------||
Bb|---------------------------------||
Gb|-4-4-4---------------------------|| play all this twice
Db|-4-4-4--4-4-4--6-6-6--4-4-4------||
Ab|-2-2-2--4-4-4--6-6-6--4-4-4------||
Eb|--------2-2-2--4-4-4--2-2-2------||
  (lead guitar)
Eb|---------------------|| 
Bb|------7---5-4--------|| play this twice over the chorus
Gb|-4-6-8--6-----4-6-6--||
Db|---------------------||
Ab|---------------------||
Eb|---------------------||

Eb|------||
Bb|-12---||
Gb|-11---|| play this after chorus
Db|-9----||
Ab|-9----||
Eb|------||
 
verse

chorus

Bridge

Eb|----------------||
Bb|--12------------||
Gb|--11------------||
Db|--9-------------||
Ab|--9-------------||
Eb|----------------||

outro

I'm blind and waiting for you
no I can't believe its comming true
God its good to be alive
And I'm still here waiting for you
no I can't believe its comming true

(guitar 1)
Eb|--------------|----------------||
Bb|--------------|----------------||
Gb|--------------|----------------||
Db|-6-6-6--4-4-4-|-2-2-2----------||
Ab|-6-6-6--4-4-4-|-2-2-2----------||
Eb|-4-4-4--2-2-2-|-0-0-0----------||
   
(guitar 2)
Eb|--------------|------------------------------------||
Bb|-5-4----------|-12---------------------------------||
Gb|-----4-6-6-6-4|-11---------------------------------||
Db|--------------|-9----------------------------------||
Ab|--------------|-9----------------------------------||
Eb|--------------|------------------------------------||

End on this
Eb|-0---------------||
Bb|-0--------12-----||
Gb|-0---or---11-----||
Db|-2--------9------||
Ab|-2--------9------||
Eb|-0---------------||

questions, comments or corrections e-mail me at www.wave_97@hotmail.com
		   
AcordesyTabs.com © 2008 Acordes y Tablaturas para guitarra. Tabs and Chords for guitar. Aviso Legal - Contacto
El uso de este sitio está sujeto a la aceptación de los términos y condiciones (29 usuarios online)