tablaturas, partituras y acordes para guitarra
Busca por banda/artista:
 
y/o título de la canción:
A B C D E F G H I J K L M N O P Q R S T U V W X Y Z 0 1 2 3 4 5 6 7 8 9 / Top 100 tabs
Categorías
Usuarios
usuario:
Darse de alta
password:
Artistas más visitados
Publicidad
TOP acordes y tablaturas de Juana la Loca


Estás en: Inicio > Letra J > Acordes y tablaturas de Juana la Loca > Sabado a la noche
Sabado a la noche
de Juana la Loca
Puntúa este acorde/tab:      
(0.7/5)
Reportar este acorde/tab
  Añadir a tus favoritos
  Imprimir
[Estrofa]
	    C#m	     E
Sabado a la noche otra vez
	    C#m	     E
Solo y confundido te llame
[Puente]
F#m7	           G#m
Escuche tu voz lejana
C#m	           A
Y en silencio te corte
[Riff]
a-2-2-0-0--------2-
e-----------4-2-4---

[Estrofa]
Un millon de veces te busque
Entre los gemidos del placer
[Puente]
Y tal vez me diste todo
Pero no lo supe ver
a-2-2-0-0--------2-
e-----------4-2-4---


F#m7	  G#m
Dejaste en mi
C#m	  G#m
El sabor de ayer
F#m7	  G#m
No se pedir
C#m	  G#m
Lo que me hace bien
F#m7
Sabado otra vez
a-2-2-0-0--------2-
e-----------4-2-4---


Sabado a la noche otra vez
Musica de fondo en la TV
Las pastillas en la almohada
Y tu foto en la Pared

[Solo]
e------------------------------------------------------
b------------------------------------------------------
g------------------------------------------------------
d-14-13-11-13-14-13------9-|-14-13-11-13-14-13---------
a-------------------9-11-----------------------9-11-12-
e------------------------------------------------------

e------------------------------------------------------
b------------------------------------------------------
g------------------------------------------------------
d------------------------------------------------------
a-12-12-14-16-14-11-12-9-9-11-12-11-9-7---------------2
e---------------------------------------7-7-5-5-4-2-4--

[Estribillo]
Dejaste en mi
El sabor de ayer
No se pedir
Lo que me hace bien
Sabado otra vez

[Con Base: C#m - E (termina en fade-out)]
Sabado a la noche otra vez


Nota: al final hay un solito que no lo pude sacar,
pero esta en la escala mayor de E
Espero que les guste!!!!!!!!1, si hay algo que cambiar
mandenme un mail
		   
AcordesyTabs.com © 2008 Acordes y Tablaturas para guitarra. Tabs and Chords for guitar. Aviso Legal - Contacto
El uso de este sitio está sujeto a la aceptación de los términos y condiciones (22 usuarios online)