tablaturas, partituras y acordes para guitarra
Busca por banda/artista:
 
y/o título de la canción:
A B C D E F G H I J K L M N O P Q R S T U V W X Y Z 0 1 2 3 4 5 6 7 8 9 / Top 100 tabs
Categorías
Usuarios
usuario:
Darse de alta
password:
Artistas más visitados
Publicidad
TOP acordes y tablaturas de Goo Goo Dolls


Broadway
de Goo Goo Dolls
Puntúa este acorde/tab:      
(0.4/5)
Reportar este acorde/tab
  Añadir a tus favoritos
  Imprimir
Broadway - The Goo Goo Dolls

 The Goo Goo Dolls are known for their very strange tunings.
One of the most common ones is to raise the B string to a C.
This tuning is very similar... only 1/2 step
down from that. Thus the tuning is:
E-A-D-G-B-e  ---->  Eb-Ab-Db-Gb-Cb-eb

Here are the corresponding chords:

C- x32000
Am7- x02000
Fmaj- 134200
Fmaj2- 134000
F5- 134xxx
G- 3x0000
Am/D- xx0200
Am- x02200


Intro: C/Am7/C/Am7/C/Am7/Fmaj/C/G


Verses:

eb-----0------------0-----------0------0-----------0----------0------
Cb--------0-------------0---------0-----0------------0-----------0---
Gb---0-----------0------------0-----0----0----0------------0---------
Db-------------------------------------------------------------------
Ab-0----------------------------------------3------------------------
Eb------------3------------1-----------------------------3-----------

Broadway is dark tonight....................A little bit weaker than U

eb-----0------0----------0----------0---------0-----0---0-----0------
Cb--------------0----------0-----------0--------0----0---0------0----
Gb---0------0--------0-----------0----------0-----0---0----0------0--
Db-------------------------------------------------------------------
Ab-------3--------0--------------------------------------------------
Eb-1---------------------------3----------1--------------------------

used to be....... broadway is dark tonight...........................

eb-0-----------0---------0-------------0------0--------0----------0--
Cb--0-------------0----------------------0------0--------0-----------
Gb---0--0----0--------0------0------0-------0-----0--2--------0------
Db-------------------------------------------------0-------3---------
Ab--------0----------------------------------------------------------
Eb------------------3-------------1----------------------------------

See the young man sitting in the old man's bar waiting for his trn 2di

After "To die!"---> C/Am7/C/Am7


C           Am7               C              Am7
The cowboy kills the rock star.... and Friday night's gone too far

C                 Am7                             Fmaj
The dim light hides the years.... on all the faded goals

C           Am7             C               Am7
Forgotten but not gone..... you drank it off your mind

C          Am7                        Fmaj       C          G
You talk about the world like it's someplace that you've been

             Am--------- (let ring)
You see you'd love to run home but you know you ain't got one

           Fmaj2----------                                   G-->Fmaj2
Cuz you're living in a world that you best forgotten round here

Chorus:

C            G    Fmaj       Am7             G              Fmaj2 C
Broadway is dark tonight..... A little bit weaker than you used to be

Am7          G          Fmaj2            Am     G
Broadway is dark tonight.... See the young man sitting 

         Fmaj2            Am7           Fmaj
In the old man's bar..... waiting for his turn to die

C/Am7/C/Am7

Verse same chords as before:
You choke down all your anger, forget you're only son
You pray to statues when you sober up for fun
Your anger don't impress me, the world slapped in your face
It always rains like hell on the loser's day of parade


             Am------
You see you'd love to run home, but you know you ain't got one

           Fmaj2----- 
Cuz you're living in a world that you best forgotten

           Am7
When you think you've got a joke nad nobody's gonna listen 

         Fmaj2                                             G--->Fmaj2
To the one small point I know they've been missing round' you


CHORUS (same as before)

Chords during solo: C/Am7/C/Am7/Fmaj2/Am7/Fmaj2

Last bridge and chorus same as before

Song ends like this:


                 Fmaj      C
Waiting for his turn to die


Enjoy, any questions or comments email me at jona@ufl.edu
		   
AcordesyTabs.com © 2008 Acordes y Tablaturas para guitarra. Tabs and Chords for guitar. Aviso Legal - Contacto
El uso de este sitio está sujeto a la aceptación de los términos y condiciones (25 usuarios online)