tablaturas, partituras y acordes para guitarra
Busca por banda/artista:
 
y/o título de la canción:
A B C D E F G H I J K L M N O P Q R S T U V W X Y Z 0 1 2 3 4 5 6 7 8 9 / Top 100 tabs
Categorías
Usuarios
usuario:
Darse de alta
password:
Artistas más visitados
Publicidad
TOP acordes y tablaturas de Goo Goo Dolls


Broadway
de Goo Goo Dolls
Puntúa este acorde/tab:      
(0.3/5)
Reportar este acorde/tab
  Añadir a tus favoritos
  Imprimir
Artist: Goo Goo Dolls
Song: Broadway 
Tabbed by: John Leadman


Tuning:

(Eb-Ab-Db-Gb-Bb-eb)


Chords:

Am - x02210

C - x30210

G - 320033

F - 133211

Fmaj7 - x33210

Em - 022000

Dm - xx0231


Intro:

C-Am-C-Am-C-Am-Fmaj7-Em-G

eb/-----0-------0-------0-----0-------------]
Bb/---1---1---1---1---1---1-----1-----------]
Gb/-----------------------------------------]
Db/-------------------------------3---------]
Ab/-0---------------------------------------]
Eb/---------3-------1-----------------------]

    Broadway is dark tonight

eb/-----0-------0-------0---------0---------]
Bb/---1---1---1---1---1---------1-----------]
Gb/-----------------------------------------]
Db/-----------------------------------------]
Ab/-3---------------------3-----------------]
Eb/---------3-------1-----------------------]

  A little bit weaker than you used to be


eb -----0-------0-------0-----0-----0-----0-----0--
Bb ---1---1---1---1---1---1-----1-----1-----1------
Gb ------------------------------------------------
Db -------------------------------------3-----3----
Ab -0----------------------------------------------
Eb ---------3-------1------------------------------

   Broadway is dark tonight


eb ---------0---------0--------------0--------------0----
Bb -------1---1-----1---1----------1---1--------------1--
Gb ------------------------------------------------------
Db ------------------------------------------------------
Ab -----0------------------------------------------------
Eb ---------------3--------------1-----------------------

See the young man sittin' in the old man's bar


eb -----0---------------0----
Bb ---1---------------1------
Gb --------------------------
Db -0---------------3--------
Ab --------------------------
Eb --------------------------

    Waitin' for his turn to die

C-Am-C-Am

Verse:

C          Am
The cowboy kills the rock star
C          Am
And Friday night's gone too far
C             Am
The dim light hides the years
Fmaj7
On all the faded girls
C          Am
Forgotten but not gone
C          Am
You drink it off your mind
C          Am
You talk about the world
          F         Em          G
Like it's someplace that you've been



Bridge:

Am
You see you'd love to run home, but you know you ain't got one
Fmaj7
Cause you're livin' in a world that you're best forgotten, around here

G-F

Chorus:

Am           G      Fmaj7
Broadway is dark tonight
C           G               Fmaj7    C
A little bit weaker than you used to be
Am          G    Fmaj7
Broadway is dark tonight
        Am        G              Fmaj7
See the young man sittin' in the old man's bar
Dm              F       C
Waitin' for his turn to die

Am-C-Am

(verse)

You choke down all your anger
Forget your only son
You pray to statues when you sober up for fun
You're anger don't impress me
The world slapped in your face
It always rains like hell on the loser's day parade



(bridge)

You see you'd love to run home, but you know ain't got one
Cause you're livin' in a world that you're best forgotten
When you're thinkin' you're a joke and nobody's gonna listen
                                                          G   F
To the one small point I know they've been missing around here



(chorus)

Broadway is dark tonight
A little bit weaker than you used to be
Broadway is dark tonight
See the young man sittin' in the old man's bar
Waitin' for his turn to die


Solo:

Am-C-Am

Dm-F-Dm-F


(bridge)

You see you'd love to run home, but you know ain't got one
Cause you're livin' in a world that you're best forgotten
And if you're thinkin' you're a joke do you think that they'll listen
To the one small point I know they've been missing around here

G   F   G F

Round here

(chorus)

Broadway is dark tonight
A little bit weaker than you used to be
Broadway is dark tonight
See the young man sittin' in the old man's bar
Waitin' for his turn to die
End on C




		   
AcordesyTabs.com © 2008 Acordes y Tablaturas para guitarra. Tabs and Chords for guitar. Aviso Legal - Contacto
El uso de este sitio está sujeto a la aceptación de los términos y condiciones (28 usuarios online)