tablaturas, partituras y acordes para guitarra
Busca por banda/artista:
 
y/o título de la canción:
A B C D E F G H I J K L M N O P Q R S T U V W X Y Z 0 1 2 3 4 5 6 7 8 9 / Top 100 tabs
Categorías
Usuarios
usuario:
Darse de alta
password:
Artistas más visitados
Publicidad
TOP acordes y tablaturas de los Panchos


Sabor a mi
de los Panchos
Puntúa este acorde/tab:      
(0.5/5)
Reportar este acorde/tab
  Añadir a tus favoritos
  Imprimir
INTRO.

1------0-----------------------------------------------
2--2-3---3-2-0-2-----2-2-2------0-2-3-2-0---0----0-0-0-
3-----------------------------------------2------------
4-----------------4---------------------------2--------
5------------------------------------------------------
6------------------------------------------------------


1---------------------------------------------
2------0-------------------------------2-2----
3--1-2---2-1---2----1-2-1-----1------------2--
4------------4----4-------4-2--------2--------
5---------------------------------------------
6---------------------------------------------


      R1           Dm               Fm
Tanto tiempo disfrutamos, de este amor
                      c 
nuestras almas se acercaron, tanto así
        R1         Dm
que yo guardo tu sabor
                   C2          C
pero tu llevas también sabor a mí.

      R1          Dm             Fm
Si negaras mi presencia en tu vivir
                   C
bastaría con abrazarte y conversar
       R1        Dm
tanta vida yo te dí
                       C2           C   Fm  C
que por fuerza tienes ya   sabor a mí.

      Gm            C7
No pretendo ser tu dueño
        F           C7        F
no soy nada, yo no tengo vanidad
       Am           D7
de mi vida, doy lo bueno
        Dm             R1         Dm
soy tan pobre que otra cosa puedo dar.

   R1          Dm
Pasarán más de mil años
        Fm
muchos más
                   C
yo no sé si tenga amor, la eternidad
        R1           Dm                  C2
pero allá tal como aquí en la boca llevarás
         C     C   Em    Am
sabor a mí.


1------0-----------------------------------------------
2--2-3---3-2-0-2-----2-2-2------0-2-3-2-0---0----0-0-0-
3-----------------------------------------2------------
4-----------------4---------------------------2--------
5------------------------------------------------------
6------------------------------------------------------


1---------------------------------------------
2------0-------------------------------2-2----
3--1-2---2-1---2----1-2-1-----1------------2--
4------------4----4-------4-2--------2--------
5---------------------------------------------
6---------------------------------------------

      Gm            C7
No pretendo ser tu dueño
        F           C7        F
no soy nada, yo no tengo vanidad
       Am           D7
de mi vida, doy lo bueno
        Dm             R1         Dm
soy tan pobre que otra cosa puedo dar.

   R1          Dm
Pasarán más de mil años
        Fm
muchos más
                   C
yo no sé si tenga amor, la eternidad
        R1           Dm                  C2
pero allá tal como aquí en la boca llevarás
         C  
sabor a mí.



   R1            C2

1--3---        --1---
2--2---        --0--- 
3--3---        --0--- 
4--2---        --0---
5--0---        --2---
6--0---        --3---
		   
AcordesyTabs.com © 2008 Acordes y Tablaturas para guitarra. Tabs and Chords for guitar. Aviso Legal - Contacto
El uso de este sitio está sujeto a la aceptación de los términos y condiciones (25 usuarios online)