tablaturas, partituras y acordes para guitarra
Busca por banda/artista:
 
y/o título de la canción:
A B C D E F G H I J K L M N O P Q R S T U V W X Y Z 0 1 2 3 4 5 6 7 8 9 / Top 100 tabs
Categorías
Usuarios
usuario:
Darse de alta
password:
Artistas más visitados
Publicidad
TOP acordes y tablaturas de Green day


Estás en: Inicio > Letra G > Acordes y tablaturas de Green day > Ha ha youre dead
Ha ha youre dead
de Green day
Puntúa este acorde/tab:      
(0.6/5)
Reportar este acorde/tab
  Añadir a tus favoritos
  Imprimir

greenday - ha, ha you’re dead !
bass
jared jaramillo (midtown_rocker)
these are 100% correct , fo-deal!

intro/verses
G---------------------------------------
D---------------------------------------
A--3*----------------------------------
E----------3*----5*-------------------
pre-chorus
G---------------------------------
D---------------------------------
A-------333------------------------
E--1-1--------3*-------------------
chours/bridge
G-------------------------------------------------------------------
D-------------------------------------------------------------------
A--3*-------3*------------------------3*--------3*-------------
E--------1*-------3*---5*---3---1*-------3*--------3333333-
outro
G---------------------------------------------------------------
D------------------------------------------------------------------
A-33-333------------------------------------33-333---------33-333-3~
E------------333-33---55-555---111-11--------------333-33--------------

		   
AcordesyTabs.com © 2008 Acordes y Tablaturas para guitarra. Tabs and Chords for guitar. Aviso Legal - Contacto
El uso de este sitio está sujeto a la aceptación de los términos y condiciones (29 usuarios online)