tablaturas, partituras y acordes para guitarra
Busca por banda/artista:
 
y/o título de la canción:
A B C D E F G H I J K L M N O P Q R S T U V W X Y Z 0 1 2 3 4 5 6 7 8 9 / Top 100 tabs
Categorías
Usuarios
usuario:
Darse de alta
password:
Artistas más visitados
Publicidad
TOP acordes y tablaturas de La Nueva Luna


Estás en: Inicio > Letra L > Acordes y tablaturas de La Nueva Luna > Saldre a buscarla
Saldre a buscarla
de La Nueva Luna
Puntúa este acorde/tab:      
(0.2/5)
Reportar este acorde/tab
  Añadir a tus favoritos
  Imprimir
intro:

1 |-7--7----7----7----------------------|-------------------------------------------------|
2 |-----8---------8-----------7-7--10---|-10--10-7-7---10--10-7-7-------8-7---------------|
3 |------9---------9-----7-7------------|--------------------------9--9------9-------7--9-| 
4 |-------------------------------------|-------------------------------------------------|
5 |-------------------------------------|-------------------------------------------------|
6 |-------------------------------------|-------------------------------------------------|

eso dos veces y despues

1|---7---------------------------------------8-8-7-8-7---------7-8-7----------|
2|------10-8-7------------7-7-7-7-10-10---10--------------8--8----------------|
3|--------------9-7-7---7-----------------------------------------------------|
4|----------------------------------------------------------------------------|
5|----------------------------------------------------------------------------|
6|----------------------------------------------------------------------------|

1|---7---------------------------------------8-8-7-8-7----12-12-10-11-12------|
2|------10-8-7------------7-7-7-7-10-10---10----------------------------------|
3|--------------9-7-7---7-----------------------------------------------------|
4|----------------------------------------------------------------------------|
5|----------------------------------------------------------------------------|
6|----------------------------------------------------------------------------|

Em                    D                                Em 
Mañana yo saldre a buscarla para decirle cuanto la extraño
Em                    D                                Em 
que me portado como un tonto que no debia haberla engañado
                      D                                Em 
le pedire que me perdone y que se olvide lo que ha pasado
                      D                                Em 
que nunca mas voy a mentirle tan solo quiero estar a su lado

            Em                      Am
Quisiera yo, quisiera yo que vuelva 
D                  Em
que vuelva al lado mio
              Am             B                  Em
Quisiera yo tenerla para sentir de nuevo su abrigo


Quisiera que se olvide, quisiera que perdone 
Quisiera yo tenerla otra vez conmigo y asi poder, 
corregir mis errores


REPITE TODO


AGUANTE LA NUEVA LUNA!!!
Cualquier duda, o para intercambiar tabs, al mail
-- El MaGo --
		   
AcordesyTabs.com © 2008 Acordes y Tablaturas para guitarra. Tabs and Chords for guitar. Aviso Legal - Contacto
El uso de este sitio está sujeto a la aceptación de los términos y condiciones (28 usuarios online)