tablaturas, partituras y acordes para guitarra
Busca por banda/artista:
 
y/o título de la canción:
A B C D E F G H I J K L M N O P Q R S T U V W X Y Z 0 1 2 3 4 5 6 7 8 9 / Top 100 tabs
Categorías
Usuarios
usuario:
Darse de alta
password:
Artistas más visitados
Publicidad
TOP acordes y tablaturas de Goo Goo Dolls


Falling Down
de Goo Goo Dolls
Puntúa este acorde/tab:      
(0.3/5)
Reportar este acorde/tab
  Añadir a tus favoritos
  Imprimir


Fallin Down
-----------
by the Goo Goo Dolls

Tabbed by Sam Dathi. Send comments to samdathi@aol.com

Intro and verse:

E] --------------------------------------------------------------------------
B] --------------------------------------------------------------------------
G] --------------------------------------------------------------------------
D] -11--14--9-----9--11--14--11--7--7-----11--14--9--9--7-7-7-7-7-7-7-7------
A] -11--14--9-----9--11--14--11--7--7-----11--14--9--9--7-7-7-7-7-7-7-7------
D] -11--14--9-----9--11--14--11--7--7-----11--14--9--9--7-7-7-7-7-7-7-7------


E] ---------------------------------------------------------------------------
B] ---------------------------------------------------------------------------
G] ---------------------------------------------------------------------------
D] -11--14--9-----9--11--14--11--7--7-----11--14--9--9--14-14-14-14-14-14-14-14
A] -11--14--9-----9--11--14--11--7--7-----11--14--9--9--14-14-14-14-14-14-14-14
D] -11--14--9-----9--11--14--11--7--7-----11--14--9--9--14-14-14-14-14-14-14-14



Chorus and rhythm behind the solo:

E] ----------------------------------------------------------------------------
B] ----------------------------------------------------------------------------
G] ----------------------------------------------------------------------------
D] -9---9-----9--11---11----11-----6-6-6-6-6-6--7---7--------------------------
A] -9---9-----9--11---11----11-----6-6-6-6-6-6--7---7--------------------------
D] -9---9-----9--11---11----11-----6-6-6-6-6-6--7---7--------------------------



Bridge: (its hard to hear whats going on here, but im pretty sure these followin
  are played with some other notes being plucked)
E] -----------------------------------------------------------------------------
B] -----------------------------------------------------------------------------
G] -----------------------------------------------------------------------------
D] -14---13---11---9---7--------------------------------------------------------
A] -14---13---11---9---7--------------------------------------------------------
D] -14---13---11---9---7--------------------------------------------------------


presolo:

E] ---------------------------------------------------------------
B] ---------------------------------------------------------------
G] ---------------------------------------------------------------         
D] -11--11--------9--7--------------------------------------------  repeat 4 tim
A] -11--11--------9--7--------------------------------------------  chords anoth
D] -11--11--------9--7--------------------------------------------  back to the 
    solo is played over.
                                 


outro:

E] -----------------------------------------------------------------------------
B] -----------------------------------------------------------------------------
G] -----------------------------------------------------------------------------
D] -6--7-----11--9--------------------------------------------------------------
A] -6--7-----11--9--------------------------------------------------------------
D] -6--7-----11--9--------------------------------------------------------------





		   
AcordesyTabs.com © 2008 Acordes y Tablaturas para guitarra. Tabs and Chords for guitar. Aviso Legal - Contacto
El uso de este sitio está sujeto a la aceptación de los términos y condiciones (15 usuarios online)