tablaturas, partituras y acordes para guitarra
Busca por banda/artista:
 
y/o título de la canción:
A B C D E F G H I J K L M N O P Q R S T U V W X Y Z 0 1 2 3 4 5 6 7 8 9 / Top 100 tabs
Categorías
Usuarios
usuario:
Darse de alta
password:
Artistas más visitados
Publicidad
TOP acordes y tablaturas de Goo Goo Dolls


Iris 6
de Goo Goo Dolls
Puntúa este acorde/tab:      
(0.6/5)
Reportar este acorde/tab
  Añadir a tus favoritos
  Imprimir
IRIS
Goo Goo Dolls

johnsantos_17@yahoo.com

Tuned low to high:  (BDDDDD)

Intro: (2x)

D---0----0----0----0----0----0----0----0---
D---0----0----0----0----0----0----0----0---
D---0----0----0----0----0----0----0----0---
D---12---11--12----0----5----4----0----0---
D---9----9----9----0----5----5----5----0---
B---0----0----0----0----0----0----0----0---

Verse:

D--------0--------------0------------0------------0-----
D----------0--------------0------------0------------0---
D------------0--------------0------------0------------0-
D-----0--------------0-------------0-----------0--------
D-------------------------------------------------------
B--3-------------5--------------8-----------8-----------

D-------0------------0------------0-------------0-------
D---------0------------0------------0-------------0-----
D-----------0------------0------------0-------------0---
D----0-------------0-----------0-------------0----------
D-------------------------------------------------------
B--0-----------10-----------8-------------8-------------

Chorus:

D--0---0---0---0--
D--0---0---0---0--
D--0---0---0---0--
D--12--11--5---4--
D--9---9---5---5--
B--0---0---0---0--
 
Interlude: (2x)

D---0----0----0----0----0----0----0----0-------------
D---0----0----0----0----0----0----0----0-------------
D---0----0----0----0----0----0----0----0-------------
D---12---11--12----0----5----4----0----0--------------
D---9----9----9----0----5----5----5----0--------------
B---0----0----0----0----0----0----0----0-------------

Coda I(*- pause)(4x)

D--0--0---0--0--*---0--0---0--0--*--0---0--*
D--0--0---0--0--*---0--0---0--0--*--0---0--*
D--0--0---0--0--*---0--0---0--0--*--0---0--*
D--12-12-12-12--*---11-11-11-11--*--12--12-*
D--9--9---9--9--*---9--9---9--9--*--9---9--*
B--0--0---0--0--*---0--0---0--0--*--0---0--*

D--0-0----0--0----0-0-0--
D--0-0----0--0----0-0-0--
D--0-0----0--0----0-0-0--
D--5-5----4--4----5-4-0--
D--5-5----5--5----5-5-5--
B--0-0----0--0----0-0-0—

Guitar Solo:(strumming)

D---0---0---0-------0----------0---0---0--------0--0--0--0--0--0----------
D---0---0---0-------0----------0---0---0--------0--0--0--0--0--0----------
D---0---0---0-------0----------0---0---0--------0--0--0--0--0--0-----------
D---0---0---0-------0----------0---0---0--------0--0--0--0--0--0----------
D---0---0---0-------0----------0---0---0--------0--0--0--0--0--0-----------
B---8---7---8--sl/--12---sl---8---7---8--sl---0--2--3--5--3--2---sl/-----

D-0--0--0--------0--0--0--0--0--0---------
D-0--0--0--------0--0--0--0--0--0---------
D-0--0--0--------0--0--0--0--0--0---------
D-0--0--0--------0--0--0--0--0--0---------
D-0--0--0--------0--0--0--0--0--0---------
B-8--7--8---sl/--0--2--3--5--3--2---sl/---

D--7-9-7---7-9-7---7-9-7--------0----0----
D--0-0-0---0-0-0---0-0-0--------0----0----
D--0-0-0---0-0-0---0-0-0--------0----0----
D--0-0-0---0-0-0---0-0-0--------0----0----
D--0-0-0---0-0-0---0-0-0--------0----0----
B--8-8-8---7-7-7---8-8-8--sl/---12--12----

D-7-9-7---7-9-7---7-9-7-------0----0---0--0--0--0---
D-0-0-0---0-0-0---0-0-0-------0----0---0--0--0--0---
D-0-0-0---0-0-0---0-0-0-------0----0---0--0--0--0---
D-0-0-0---0-0-0---0-0-0-------0----0---0--0--0--0---
D-0-0-0---0-0-0---0-0-0-------0----0---0--0--0--0---
B-8-8-8---7-7-7---8-8-8--sl/--12---10--8--7--5--3---

D------0-----------0-----------0-------------0--------------0-----------0------
D--------0-----------0-----------0-------------0--------------0-----------0----
D----------0-----------0-----------0-------------0-------------0------------0--
D----0-----------0----------0-------------0--------------0------------0--------
D-------------------------------------------------------------------------------
B--0----------2-----------3------------0-------------10------------8------------

D------0-----------0-----------0-------------0--------------0-----------0-----*-
D--------0-----------0-----------0-------------0--------------0-----------0---*-
D----------0-----------0-----------0-------------0-------------0------------0-*-
D----0-----------0----------0-------------0--------------0------------0-------*-
D-----------------------------------------------------------------------------*-
B--0----------2-----------3------------0-------------10------------8----------*-


While Gtr 2 plays this: 
Gtr 2: (standard tuning)

E------------------------------------------------------------------------------
B------------------------------------------------------------------------------
G------------------------------------------------------------------------------
D---7-sl/-12~----12-sl-11~----7-sl/-12~---12-sl/-14-sl/-16~----------------
A------------------------------------------------------------------------------
E------------------------------------------------------------------------------

E------------------------------------------------------------------------------
B------------------------------------------------------------------------------
G---------------11------------------9-sl/-16~~~---------------------------
D--7-sl/-12~------11~---7sl/9~------------------------------------------
A------------------------------------------------------------------------------
E------------------------------------------------------------------------------

E------------------------------------------------------------------------------
B-----------------------------------10-sl/-14-14~---15-p-14---------12-sl/-14~~*
G------------------------------------------------------------14--------------
D---------------------------------------------------------------14-----------
A-7-sl/-12---12-sl/-14-sl/-16--------------------------------------------------
E------------------------------------------------------------------------------


And I’d give up forever to touch you
Coz I know that you feel me somehow
You’re the closest to heaven that I’ll ever be
And I don’t want to go home right now.

And all I can taste is this moment
And all I can breath is you’re life
Coz sooner or later is over
And I don’t want to miss you tonight.

And I don’t want the world to see me
Coz I don’t think that they’d understand 
When everything’s made to be broken
I just want you to know who I am.

And you can’t fight the tears that ain’t coming
Or the moment of truth in you lies
When everything seems like the movies
Yeh you bleed just to know you’re alive.

And I don’t want the world to see me
Coz I don’t think that they’d understand 
When everything’s made to be broken
I just want you to know who I am.

=====¤w&_17=====
		   
AcordesyTabs.com © 2008 Acordes y Tablaturas para guitarra. Tabs and Chords for guitar. Aviso Legal - Contacto
El uso de este sitio está sujeto a la aceptación de los términos y condiciones (34 usuarios online)