tablaturas, partituras y acordes para guitarra
Busca por banda/artista:
 
y/o título de la canción:
A B C D E F G H I J K L M N O P Q R S T U V W X Y Z 0 1 2 3 4 5 6 7 8 9 / Top 100 tabs
Categorías
Usuarios
usuario:
Darse de alta
password:
Artistas más visitados
Publicidad
TOP acordes y tablaturas de Goo Goo Dolls


Iris
de Goo Goo Dolls
Puntúa este acorde/tab:      
(0.1/5)
Reportar este acorde/tab
  Añadir a tus favoritos
  Imprimir
================================================
"Iris"
Performed by Goo Goo Dolls
CD: City of Angels Soundtrack
Transcribed: Mark Riggs 
================================================

**TUNING**
low to high (DADDDD)

e - down to D
B -  up to  D
G - down to D
D -   same  D
A -   same  A
E - down to D


CHORDS:
D/F#     -    4x0000
Dmaj7/C# - (11)x0000


INTRO (x2):

    D5                  Dmaj7/C#         D5
D|---0---0---0---0---0---0---0---0---0---0------|
D|---0---0---0---0---0---0---0---0---0---0------|
D|---0---0---0---0---0---0---0---0---0---0------|
D|--12--12--12--12--12--11--11--11--11--11/12---|
A|----------------------------------------------|
D|----------------------------------------------|

     D5      Gmaj7               Dadd9/F#    D5
D|---0---0---0---0---0---0---0---0---0---0---0---0---0---0---|
D|---0---0---4---4---4---4---4---2---0---0---0---0---0---0---|
D|---0---0---0---0---0---0---0---0---0---0---0---0---0---0---|
D|---0---0---5---5---5---5---5---4---0---0---0---0---0---0---|
A|-----------------------------------------------------------|
D|-----------------------------------------------------------|
                                                 And I'd


VERSE:

     D5            E7            G5                          Bm
D|--------0-------------0-------------0-------------0------------|
D|-----------0-------------0-------------0-------------0---------|
D|--------------0-------------0-------------0-------------0------|
D|---------------------------------------------0-----------------|
A|---------------------------------------------------------------|
D|---0-------------2-------------5---------------------------9---|
   give  up  for - ev - er  to touch  you      'cause I   know  that

              Asus4         G5
D|---0-------------0-------------0-------------0---------|
D|------0-------------0-------------0-------------0------|
D|---------0-------------0-------------0-------------0---|
D|----------------------------------------0--------------|
A|-------------------------------------------------------|
D|------------7-------------5----------------------------|
       you feel me   some  -  how         You're the clos-

               D5        E7           G5
You're the closest to heaven that I'll ever be
           Bm         Asus4       G5
And I don't want to go home right now
     D5          E7         G5
And all I can taste is this moment
       Bm        Asus4          G5
And all I can breathe is your life
      D5           E7       G5
Well, sooner or later it's over
         Bm            Asus4       G5
I just don't want to miss you tonight

And I


CHORUS:

     Bm              Asus4           G5
D|---0---0---0---0---0---0---0---0---0---0---0---0---0---|
D|---0---0---0---0---0---0---0---0---0---0---0---0---0---|
D|---0---0---0---0---0---0---0---0---0---0---0---0---0---|
D|---0---0---0---0---0---0---0---0---0---0---0---0---0---|
A|---x---x---x---x---x---x---x---x---x---x---x---x---x---|
D|---9---9---9---9---7---7---7---7---5---5---5---5---5---|
  don't  want  the  world_ to see__  me               'cause I

     G5          Bm              Asus4           G5
D|---0---0---0---0---0---0---0---0---0---0---0---0---0---0---0---0---0---0---0--
D|---0---0---0---0---0---0---0---0---0---0---0---0---0---0---0---0---0---0---0--
D|---0---0---0---0---0---0---0---0---0---0---0---0---0---0---0---0---0---0---0--
D|---0---0---0---0---0---0---0---0---0---0---0---0---0---0---0---0---0---0---0--
A|---x---x---x---x---x---x---x---x---x---x---x---x---x---x---x---x---x---x---x--
D|---5---5---5---9---9---9---9---7---7---7---7---5---5---5---5---5---5---5---5--
      don't     think   that   they'd__   understand                 When

Bm           Asus4         G5
ev'rything's made to be broken
          Bm          Asus4   G5
I just want you to know who I am


INTERLUDE:

    D5                  Dmaj7/C#         D5
D|---0---0---0---0---0---0---0---0----0------|
D|---0---0---0---0---0---0---0---0----0------|
D|---0---0---0---0---0---0---0---0----0------|
D|--12--12--12--12--12--11--11--11---11/12---|
A|-------------------------------------------|
D|-------------------------------------------|

     D5      Gmaj7               Dadd9/F#    D5
D|---0---0---0---0---0---0---0---0---0---0---0---0---0---0---|
D|---0---0---4---4---4---4---4---2---0---0---0---0---0---0---|
D|---0---0---0---0---0---0---0---0---0---0---0---0---0---0---|
D|---0---0---5---5---5---5---5---4---0---0---0---0---0---0---|
A|-----------------------------------------------------------|
D|-----------------------------------------------------------|

    D5                  Dmaj7/C#         D5
D|---0---0---0---0---0---0---0---0----0------|
D|---0---0---0---0---0---0---0---0----0------|
D|---0---0---0---0---0---0---0---0----0------|
D|--12--12--12--12--12--11--11--11---11/12---|
A|-------------------------------------------|
D|-------------------------------------------|

     D5      Gmaj7               Dadd9/F#
D|---0---0---0---0---0---0---0---0---0---0---|
D|---0---0---4---4---4---4---4---2---0---0---|
D|---0---0---0---0---0---0---0---0---0---0---|
D|---0---0---5---5---5---5---5---4---0---0---|
A|-------------------------------------------|
D|-------------------------------------------|


VERSE:

 D5                          E7          G5
And you can't fight the tears that ain't coming
         Bm         Asus4          G5
Or the moment of truth in your lies
     D5          E7               G5
When ev'rything feels like the movies
             Bm           Asus4       G5
Yeah you bleed just to know you're alive

And I


CHORUS:

     Bm              Asus4           G5
D|---0---0---0---0---0---0---0---0---0---0---0---0---0---|
D|---0---0---0---0---0---0---0---0---0---0---0---0---0---|
D|---0---0---0---0---0---0---0---0---0---0---0---0---0---|
D|---0---0---0---0---0---0---0---0---0---0---0---0---0---|
A|---x---x---x---x---x---x---x---x---x---x---x---x---x---|
D|---9---9---9---9---7---7---7---7---5---5---5---5---5---|
  don't  want  the  world_ to see__  me               'cause I

     G5          Bm              Asus4           G5
D|---0---0---0---0---0---0---0---0---0---0---0---0---0---0---0---0---0---0---0--
D|---0---0---0---0---0---0---0---0---0---0---0---0---0---0---0---0---0---0---0--
D|---0---0---0---0---0---0---0---0---0---0---0---0---0---0---0---0---0---0---0--
D|---0---0---0---0---0---0---0---0---0---0---0---0---0---0---0---0---0---0---0--
A|---x---x---x---x---x---x---x---x---x---x---x---x---x---x---x---x---x---x---x--
D|---5---5---5---9---9---9---9---7---7---7---7---5---5---5---5---5---5---5---5--
      don't     think   that   they'd__   understand                 When

Bm           Asus4         G5
ev'rything's made to be broken
          Bm          Asus4   G5
I just want you to know who I am


INTERLUDE:

     Bm           Dmaj7/C#      D5
D|------0-----0-------0-----0-------0-----0---0-----0---|
D|---------0-------------0-------------0---------0------|
D|------------------------------------------------------|
D|------------------------------------------------------|
A|------------------------------------------------------|
D|---9------------11------------12----------------------|

     Bm           Asus4        G5
D|------0-----0------0-----0------0-----0---0-----0----------------|
D|---------0------------0------------0---------0-------------------|
D|----------------------------------------------------0-----0------|
D|-------------------------------------------------------0-----0---|
A|-----------------------------------------------------------------|
D|---9------------7------------5-----------------------------------|

     Bm           Dmaj7/C#      D5
D|------0-----0-------0-----0-------0-----0---0-----0---|
D|---------0-------------0-------------0---------0------|
D|------------------------------------------------------|
D|------------------------------------------------------|
A|------------------------------------------------------|
D|---9------------11------------12----------------------|

     Bm           Asus4        G5
D|------0-----0------0-----0---0---0---0---0---0---0---0---0---0---|
D|---------0------------0------0---0---0---0---0---0---0---0---0---|
D|-----------------------------0---0---0---0---0---0---0---0---0---|
D|-----------------------------0---0---0---0---0---0---0---0---0---|
A|-----------------------------x---x---x---x---x---x---x---x---x---|
D|---9------------7------------5---5---5---5---5---5---5---5---5---|

(play 3 times)
     Bm              Dmaj7/C#                 D5
D|---0---0---0---0----0----0----0----0----0----0---|
D|---0---0---0---0----0----0----0----0----0----0---|
D|---0---0---0---0----0----0----0----0----0----0---|
D|---0---0---0---0----0----0----0----0----0----0---|
A|---x---x---x---x----x----x----x----x----x----x---|
D|---9---9---9---9---11---11---11---11---11---12---|

     G5
D|---0---0---0---0---0---0---0---0---0---0---0---|
D|---0---0---0---0---0---0---0---0---0---0---0---|
D|---0---0---0---0---0---0---0---0---0---0---0---|
D|---0---0---0---0---0---0---0---0---0---0---0---|
A|---x---x---x---x---x---x---x---x---x---x---x---|
D|---5---5---5---5---5---5---5---5---5---5---5---|


SOLO:

Bm  Dmaj7/C#

    D5 G5   D/F#   G5      Bm     G5        D/F#
D|-----------------------------------------------|
D|-----------------------------------------------|
D|-------------------------------------11--------|
D|---7/12---11---7/12---14/16---7/12--------11---|
A|-----------------------------------------------|
D|-----------------------------------------------|

     Bm     Dmaj7/C#  D5  E7   D5 Dmaj7/C# G5
D|--------------------------------------------------------|
D|--------------------------------------------------------|
D|-------9/16---16---16---16-----------------------------|
D|---9--------------------------7-----/----12---/14-------|
A|--------------------------------------------------------|
D|--------------------------------------------------------|

     D/F#     Bm                 let ring
D|-----------------------------------------------|
D|-----------------------------------------------|
D|---------14/18---18---/1918-------------/18~~~|
D|---/16-------------------------19--------------|
A|------------------------------------19---------|
D|-----------------------------------------------|


INTERLUDE:

Bm   Dmaj7/C#   D5
Bm   Asus4   G5
Bm   Dmaj7/C#   D5
Bm   Asus4   G5


CHORUS:

And I

     Bm              Asus4           G5
D|---0---0---0---0---0---0---0---0---0---0---0---0---0---|
D|---0---0---0---0---0---0---0---0---0---0---0---0---0---|
D|---0---0---0---0---0---0---0---0---0---0---0---0---0---|
D|---0---0---0---0---0---0---0---0---0---0---0---0---0---|
A|---x---x---x---x---x---x---x---x---x---x---x---x---x---|
D|---9---9---9---9---7---7---7---7---5---5---5---5---5---|
  don't  want  the  world_ to see__  me               'cause I

     G5          Bm              Asus4           G5
D|---0---0---0---0---0---0---0---0---0---0---0---0---0---0---0---0---0---0---0--
D|---0---0---0---0---0---0---0---0---0---0---0---0---0---0---0---0---0---0---0--
D|---0---0---0---0---0---0---0---0---0---0---0---0---0---0---0---0---0---0---0--
D|---0---0---0---0---0---0---0---0---0---0---0---0---0---0---0---0---0---0---0--
A|---x---x---x---x---x---x---x---x---x---x---x---x---x---x---x---x---x---x---x--
D|---5---5---5---9---9---9---9---7---7---7---7---5---5---5---5---5---5---5---5--
      don't     think   that   they'd__   understand                 When

Bm           Asus4         G5
ev'rything's made to be broken
          Bm          Asus4   G5
I just want you to know who I am


          Bm         Asus4    Bm
I just want you to know who I am


OUTRO:

Bm   Dmaj7/C#   D5
Bm   Asus4   G5
Bm   Dmaj7/C#   D5
Bm   Asus4   G5
(repeat and fade)
________________________________________________________
Brought to you by FEEDBACK - A "New Wave" in Guitar Tabs
http://www.geocities.com/SunsetStrip/Stage/9743/
		   
AcordesyTabs.com © 2008 Acordes y Tablaturas para guitarra. Tabs and Chords for guitar. Aviso Legal - Contacto
El uso de este sitio está sujeto a la aceptación de los términos y condiciones (25 usuarios online)