tablaturas, partituras y acordes para guitarra
Busca por banda/artista:
 
y/o título de la canción:
A B C D E F G H I J K L M N O P Q R S T U V W X Y Z 0 1 2 3 4 5 6 7 8 9 / Top 100 tabs
Categorías
Usuarios
usuario:
Darse de alta
password:
Artistas más visitados
Publicidad
TOP acordes y tablaturas de Goo Goo Dolls


Iris
de Goo Goo Dolls
Puntúa este acorde/tab:      
(0.2/5)
Reportar este acorde/tab
  Añadir a tus favoritos
  Imprimir
Goo Goo Dolls
Iris
this song is in Drop D tuning; DADGBE
intro:
Guitar 1 plays this part
---2--------------------2--------------3
---3--------------------3--------------3
---2--------------------2--------------0
---0--------------------0--------------0
---0--------------------0--------------5
---0--------------------2--------------5

---2-------------------------2---------------3
---3-------------------------3---------------3
---4-------------------------4---------------0
---4-------------------------4---------------0
---2-------------------------0---------------5
---x-------------------------x---------------5
     
Guitar 2 plays this part

E---7-7-7-7-7---5-5-5-5-5---7--3--------7-7-7-7-7---5-5-5-5-5---7--5
B---0-0-0-0-0---0-0-0-0-0---0--0--------0-0-0-0-0---0-0-0-0-0---0--0
G-------------------------------------------------------------------------------
D-------------------------------------------------------------------------------
A-------------------------------------------------------------------------------
E-------------------------------------------------------------------------------

Verse
---2--------------------2--------------3
---3--------------------3--------------3
---2--------------------2--------------0
---0--------------------0--------------0
---0--------------------0--------------5
---0--------------------2--------------5
And I'd give up forever to touch you

---2-------------------------2---------------3
---3-------------------------3---------------3
---4-------------------------4---------------0
---4-------------------------4---------------0
---2-------------------------0---------------5
---x-------------------------x---------------5
Cause I know that you feel me some how

---2--------------------2------------------------3
---3--------------------3------------------------3
---2--------------------2------------------------0
---0--------------------0------------------------0
---0--------------------0------------------------5
---0--------------------2------------------------5
you the closest to heaven that I’ve ever been


---2-------------------------2---------------3
---3-------------------------3---------------3
---4-------------------------4---------------0
---4-------------------------4---------------0
---2-------------------------0---------------5
---x-------------------------x---------------5
and I don’t want to      go home right now

(Continue with the same chords and progression)
And all I can taste is this moment
And all I can breath is your life
When sooner or later it’s over
I just don’t want to miss you tonight


---2--------------------2----------------3
---3--------------------3----------------3
---4--------------------4----------------0
---4--------------------4----------------0
---2--------------------2----------------5
---0--------------------2----------------5
And I don’t want the world to see me

---2---------------------------2---------------3
---3---------------------------3---------------3
---4---------------------------4---------------0
---4---------------------------4---------------0
---2---------------------------0---------------5
---x---------------------------x---------------5
‘Cause I don’t think that they’d understand

When everything’s meant to be broken
I just want you to know who I am






Bridge
---2---2---2-------3---3---3
---3---3---2-------3---3---3
---4---4---4-------4---0---0          2x
---4---x---x-------5---4---0
---2---4-/-5------------------


verse 2
and you can’t fight the tears that ain’t coming’
or the moment of truth in you lies
when everything feels like the movies
yeah you bleed just to know your alive

---2--------------------2----------------3
---3--------------------3----------------3
---4--------------------4----------------0
---4--------------------4----------------0
---2--------------------2----------------5
---0--------------------2----------------5
And I don’t want the world to see me

---2---------------------------2---------------3
---3---------------------------3---------------3
---4---------------------------4---------------0
---4---------------------------4---------------0
---2---------------------------0---------------5
---x---------------------------x---------------5
‘Cause I don’t think that they’d understand

When everything’s meant to be broken
I just want you to know who I am

Bridge 2

--2---2---2-------2---2---3
--3---3---2-------3---3---3
--4---4---4-------4---4---0      2x
--4---x---5-------4---x---0
--2---4---5-------2---4---5
----------------------------5






---2--------------------2----------------3
---3--------------------3----------------3
*--4--------------------4----------------0
*--4--------------------4----------------0
---2--------------------2----------------5
---0--------------------2----------------5


---2---------------------------2---------------3
---3---------------------------3---------------3       repete to *      2x
---4---------------------------4---------------0                      *
---4---------------------------4---------------0
---2---------------------------0---------------5
---x---------------------------x---------------5

--3---2---3---2
--3---2---3---3
--0---2---0---4         2x
--0---2---0---4
--5---4---5---2
--5---4---5---x

--3---2---3
--3---2---3
--0---2---0
--0---2---0    
--5---4---5
--5---4---5

--------------------------------------------------------------------------------

---2--------------------2----------------3
---3--------------------3----------------3
---4--------------------4----------------0    play very soft
---4--------------------4----------------0
---2--------------------2----------------5
---0--------------------2----------------5





---2---------------------------2---------------3
---3---------------------------3---------------3
---4---------------------------4---------------0    play very soft
---4---------------------------4---------------0
---2---------------------------0---------------5
---x---------------------------x---------------5

---2--------------------2----------------3
---3--------------------3----------------3
---4--------------------4----------------0
---4--------------------4----------------0
---2--------------------2----------------5
---0--------------------2----------------5
And I don’t want the world to see me

---2---------------------------2---------------3
---3---------------------------3---------------3
---4---------------------------4---------------0
---4---------------------------4---------------0               
---2---------------------------0---------------5
---x---------------------------x---------------5
‘Cause I don’t think that they’d understand

When everything’s meant to be broken
I just want you to know who I am                         2x

I just want you to know who I am                         

I just want you to know who I am                         

I just want you to know who I am                         
I just want you to know who I am                         


You’ll have to listen to the CD for the details and better strumming instruction

You going to have to use your thumb to hold down some of the strings on the low 




















		   
AcordesyTabs.com © 2008 Acordes y Tablaturas para guitarra. Tabs and Chords for guitar. Aviso Legal - Contacto
El uso de este sitio está sujeto a la aceptación de los términos y condiciones (28 usuarios online)