tablaturas, partituras y acordes para guitarra
Busca por banda/artista:
 
y/o título de la canción:
A B C D E F G H I J K L M N O P Q R S T U V W X Y Z 0 1 2 3 4 5 6 7 8 9 / Top 100 tabs
Categorías
Usuarios
usuario:
Darse de alta
password:
Artistas más visitados
Publicidad
TOP acordes y tablaturas de Silvio Rodriguez


Estás en: Inicio > Letra S > Acordes y tablaturas de Silvio Rodriguez > Santiago de Chile
Santiago de Chile
de Silvio Rodriguez
Puntúa este acorde/tab:      
(0.7/5)
Reportar este acorde/tab
  Añadir a tus favoritos
  Imprimir
ES EL REQUINTO DEL PRINCIPIO DE LA LACANCIÓN


E--------------------------------------
A--------------------------------------
D--0--0/2/3-----------3----0/2/3---0---
G----------0/2/3--2-0---2--------2-----
B--------------------------------------
e--------------------------------------

E--------------------------------------
A--------------------------------------
D----0/2/3------------3----0/2/3---0---
G----------0/2/3--2-0---2--------2-----
B--------------------------------------
e--------------------------------------

E-----------------------
A-----------------------
D--------0--------0-----
G--2/3-2----2/3-2-------
B-----------------------
e-----------------------
		   
AcordesyTabs.com © 2008 Acordes y Tablaturas para guitarra. Tabs and Chords for guitar. Aviso Legal - Contacto
El uso de este sitio está sujeto a la aceptación de los términos y condiciones (82 usuarios online)