tablaturas, partituras y acordes para guitarra
Busca por banda/artista:
 
y/o título de la canción:
A B C D E F G H I J K L M N O P Q R S T U V W X Y Z 0 1 2 3 4 5 6 7 8 9 / Top 100 tabs
Categorías
Usuarios
usuario:
Darse de alta
password:
Artistas más visitados
Publicidad
TOP acordes y tablaturas de Ricardo Arjona


Santo Pecado
de Ricardo Arjona
Puntúa este acorde/tab:      
(0.6/5)
Reportar este acorde/tab
  Añadir a tus favoritos
  Imprimir
Pues este es el tab de lo mas nuevo de Arjona, Santo Pecado. Basicamente,
es para guitarra electrica pero se puede acompañar con una acustica.
Si encuentran una duda o comentario, por favor dejenme saberlo.
(251291). Disfruten:




Ehhh ehhhh ohhh maaa hiieeeeee..... 
1. -------------
2. -5h7p5--5----
3. -------------
4. -------------
5. -------------
6. -------------

     A#               F      A#                 F
    Santo pecado conocerte, santo pecado preguntarte,
1. --1-x-1-1-x-x-1-x-1-x-1-x-1-1-x-x-1-x-1-1-x-x---
2. --3-x-3-3-x-x-1-x-1-x-3-x-3-3-x-x-1-x-1-1-x-x---
3. --3-x-3-3-x-x-2-x-2-x-3-x-3-3-x-x-2-x-2-2-x-x---
4. --3-x-3-3-x-x-3-x-3-x-3-x-3-3-x-x-3-x-3-3-x-x---
5. --1-x-1-1-x-x-3-x-3-x-1-x-1-3-x-x-3-x-3-3-x-x---
6. --------------1-x-1-x-----------1-x-1-1-x-x---

     G                      F#        E                              A#
     si viajas sola por la vida, si aceptas de inquilino entre tus brazos,
1. --3-x-3-3-x-x-2-x-2-x-1-x-----------------1-x-1-x-x---
2. --3-x-3-3-x-x-2-x-2-x-2-x-----------------3-x-3-x-x---
3. --4-x-4-4-x-x-3-x-3-x-3-x-1-x-1-x-x-1-x-x-3-x-3-x-x---
4. --5-x-5-5-x-x-4-x-4-x-3-x-2-x-2-x-x-2-x-x-3-x-3-x-x---
5. --5-x-5-5-x-x-4-x-4-x-1-x-2-x-2-x-x-2-x-x-1-x-1-x-x---
6. --3-x-3-3-x-x-2-x-2-x-1-x-----------------------------

       F            Em          A#          F   
    a este pobre pecado, abandonado, abandonado.
1. --1-x-1-x---------1-x-1-x-x-1-x-1-x-x-----
2. --1-x-1-x---------3-x-3-x-x-1-x-1-x-x-----
3. --2-x-2-x-0-x-0-x-3-x-3-x-x-2-x-2-x-x-----
4. --3-x-3-x-2-x-2-x-3-x-3-x-x-3-x-3-x-x-----
5. --3-x-3-x-2-x-2-x-1-x-1-x-x-3-x-3-x-x-----
6. --1-x-1-x-0-x-0-x-----------1-x-1-x-x-----

     A#                 F      A#                    F
    Santo pecado fue besarte, santo pecado hacerme adicto,
1. --1-x-1-1-x-x-1-x-1-x-1-x-1-1-x-x-1-x-1-1-x-x---
2. --3-x-3-3-x-x-1-x-1-x-3-x-3-3-x-x-1-x-1-1-x-x---
3. --3-x-3-3-x-x-2-x-2-x-3-x-3-3-x-x-2-x-2-2-x-x---
4. --3-x-3-3-x-x-3-x-3-x-3-x-3-3-x-x-3-x-3-3-x-x---
5. --1-x-1-1-x-x-3-x-3-x-1-x-1-3-x-x-3-x-3-3-x-x---
6. --------------1-x-1-x-------------1-x-1-1-x-x---

         G                      F#          E                  A#
    al brillo que disparan tus ojos, a tus manos investigando todo,
1. --3-x-3-3-x-x-2-x-2-x-1-x-----------------1-x-1-x-x---
2. --3-x-3-3-x-x-2-x-2-x-3-x-----------------3-x-3-x-x---
3. --4-x-4-4-x-x-3-x-3-x-3-x-1-x-1-x-x-1-x-x-3-x-3-x-x---
4. --5-x-5-5-x-x-4-x-4-x-3-x-2-x-2-x-x-2-x-x-3-x-3-x-x---
5. --5-x-5-5-x-x-4-x-4-x-1-x-2-x-2-x-x-2-x-x-1-x-1-x-x---
6. --3-x-3-3-x-x-2-x-2-x-1-x-----------------------------

        F               Em            A#           F
    al ruido cuando consigues, el milagro, el milagro.
1. --1-x-1-x-x---------x-1-x-1-x-x-1-x-1-x-x-----
2. --1-x-1-x-x---------x-3-x-3-x-x-1-x-1-x-x-----
3. --2-x-2-x-x-0-x-0-x-x-3-x-3-x-x-2-x-2-x-x-----
4. --3-x-3-x-x-2-x-2-x-x-3-x-3-x-x-3-x-3-x-x-----
5. --3-x-3-x-x-2-x-2-x-x-1-x-1-x-x-3-x-3-x-x-----
6. --1-x-1-x-x-0-x-0-x-------------1-x-1-x-x-----

     A#                   F    A#                   F
    Santo pecado es el deseo, santo pecado tus caderas,
1. --1--x--1--1--x--x--1--x--1--x--1--x--1--1--x--x--1--x--1--1--x--x---
2. --3--x--3--3--x--x--1--x--1--x--3--x--3--3--x--x--1--x--1--1--x--x---
3. --3--x--3--3--x--x--2--x--2--x--3--x--3--3--x--x--2--x--2--2--x--x---
4. --3--x--3--3--x--x--3--x--3--x--3--x--3--3--x--x--3--x--3--3--x--x---
5. --1--x--1--1--x--x--3--x--3--x--1--x--1--3--x--x--3--x--3--3--x--x---
6. --------------------1--x--1--x--------------------1--x--1--1--x--x---

       G                   F#           E              A#
 y el vertice calido y siniestro, archivo de mis fantasias,
1. --3-x-3-3-x-x-2-x-2-x-1-x-------------1-x-1-x-x---
2. --3-x-3-3-x-x-2-x-2-x-3-x-------------3-x-3-x-x---
3. --4-x-4-4-x-x-3-x-3-x-3-x-1-x-1-x-1-x-3-x-3-x-x---
4. --5-x-5-5-x-x-4-x-4-x-3-x-2-x-2-x-2-x-3-x-3-x-x---
5. --5-x-5-5-x-x-4-x-4-x-1-x-2-x-2-x-2-x-1-x-1-x-x---
6. --3-x-3-3-x-x-2-x-2-x-1-x-------------------------

      F                 Em              A#              F
 tan cerca siempre del cielo, y del infierno, y del infierno.
1. --1-x-1-x-x-1---------x-1-x-1-x-x-1-x-1-x-x-----
2. --1-x-1-x-x-1---------x-3-x-3-x-x-1-x-1-x-x-----
3. --2-x-2-x-x-2-0-x-0-x-x-3-x-3-x-x-2-x-2-x-x----
4. --3-x-3-x-x-3-2-x-2-x-x-3-x-3-x-x-3-x-3-x-x----
5. --3-x-3-x-x-3-2-x-2-x-x-1-x-1-x-x-3-x-3-x-x----
6. --1-x-1-x-x-1-0-x-0-x-------------1-x-1-x-x----


A#                             F
He tratado de encontrar la analogia,
       Em7
para ponerle algun nombre,
        F
a este caos que has causado,
        E7
que me gusta y me fastidia,
         F
y me ha dado por llamarlo solo:


CORO:

 A#      F     G      Em                 
Santo pecado, santo pecado,
       E                        A#
si me das una razon para estar vivo,
 F                                 G#  E7
porque despues das dos para estar muerto.

Y grito que es un:

 A#      F     G      Em
Santo pecado, santo pecado,
         E                     A#
si construyes paraisos por un rato,
     F                          E
porque despues me mandas al infierno.

Y digo que es un:

 A#      F     G       Em
Santo pecado, santo pecado,
                  A
santo pecado conocerte.


Hoy sumo sueños a mis dudas, hoy resto besos a mis ganas,
     G                     F#          E                     A#
hoy vivo al filo de la nostalgia, hoy tengo heridas como estrellas,
1. --3-x-3-x-3-x-2-2-x-2-x---------------1-x-1-x-x---
2. --3-x-3-x-3-x-2-2-x-2-x---------------3-x-3-x-x---
3. --4-x-4-x-4-x-3-3-x-3-x-1-x-1-x-1-x-x-3-x-3-x-x---
4. --5-x-5-x-5-x-4-4-x-4-x-2-x-2-x-2-x-x-3-x-3-x-x---
5. --5-x-5-x-5-x-4-4-x-4-x-2-x-2-x-2-x-x-1-x-1-x-x---
6. --3-x-3-x-3-x-2-2-x-2-x---------------------------

           F                  Em              A#         F 
     hoy sueño mientras te extraño, como olvidarte, olvidarte.
1. --1-x-1-x-x-1-x---------------1-x-1-x-1-x-1-x-x---
2. --1-x-1-x-x-1-x---------------3-x-3-x-1-x-1-x-x---
3. --2-x-2-x-x-2-x-0-x-0-x-x-0-x-3-x-3-x-3-x-2-x-x---
4. --3-x-3-x-x-3-x-2-x-2-x-x-2-x-3-x-3-x-3-x-3-x-x---
5. --3-x-3-x-x-3-x-2-x-2-x-x-2-x-1-x-1-x-1-x-3-x-x---
6. --1-x-1-x-x-1-x-0-x-0-x---0-x---------1-x-1-x-x---




 A#      F     G      Em                 
Santo pecado, santo pecado,
       E                        A#
si me das una razon para estar vivo,
 F                                 G#  E7
porque despues das dos para estar muerto.

Y grito que es un:

 A#      F     G      Em
Santo pecado, santo pecado,
         E                     A#
si construyes paraisos por un rato,
     F                          E
porque despues me mandas al infierno.


(F#m G  F F# B7)
Mentiras que te creo, verdades que te inventas,
santo es el coraje, y pecado el delirio,
de quererte para mi.

Solo:
1. ------------------------------------12^^^-7-7h9p7---7b-----
2. --------------------------------------------------9--------
3. -----------------------------------------------------------
4. –3////--3p2-5-3/5-2-4b-2-0h2--7/9--------------------------
5. -----------------------------------------------------------
6. -----------------------------------------------------------

1. ---------------9-11-11-12b-12p11h12----11-12-14b-11-----------------
2. --------5h7-5-----------------------14--------------14b-11-13b------
3. --5-5-7-------------------------------------------------------------
4. --------------------------------------------------------------------
5. --------------------------------------------------------------------
6. --------------------------------------------------------------------

1. -10-12-10-7-------------------
2. ------------9-7---------------
3. ----------------9-7-11--------
4. -----------------------9b-----
5. ------------------------------
6. ------------------------------


(Acordes del Coro)
Santo pecado,
santo pecado,
si me das una razon para estar vivo,
porque despues das dos para estar muerto.

Y grito que es un:

Santo pecado,
santo pecado,
santo pecado conocerte.


OUTRO:

1. --1--1--1--x--x--1--1--1--x--x--1--x--1--x--x-----
2. --3--3--3--x--x--1--1--1--x--x--3--x--1--x--x-----
3. --3--3--3--x--x--2--2--2--x--x--3--x--2--x--x-----
4. --3--3--3--x--x--3--3--3--x--x--3--x--3--x--x-----
5. --1--1--1--x--x--3--3--3--x--x--1--x--3--x--x-----
6. -----------------1--1--1--x--x--------1--x--x-----

1. --1--1--1--x--x--1--1--1--x--x--1--x--1--x--x-----1---
2. --3--3--3--x--x--1--1--1--x--x--3--x--1--x--x-----3---
3. --3--3--3--x--x--2--2--2--x--x--3--x--2--x--x--1--3---
4. --3--3--3--x--x--3--3--3--x--x--3--x--3--x--x--2--3---
5. --1--1--1--x--x--3--3--3--x--x--1--x--3--x--x--2--1---
6. -----------------1--1--1--x--x--------1--x--x--0------


Bueno, esa fue la tablatura. Les recomiendo usar mejor los acordes de la excelente
transcripcion de Julio Duran y usar este tab. Si tienen dudas o 
comentarios, favor de mandarlas a mi mail. Suerte!!!
		   
AcordesyTabs.com © 2008 Acordes y Tablaturas para guitarra. Tabs and Chords for guitar. Aviso Legal - Contacto
El uso de este sitio está sujeto a la aceptación de los términos y condiciones (40 usuarios online)