tablaturas, partituras y acordes para guitarra
Busca por banda/artista:
 
y/o título de la canción:
A B C D E F G H I J K L M N O P Q R S T U V W X Y Z 0 1 2 3 4 5 6 7 8 9 / Top 100 tabs
Categorías
Usuarios
usuario:
Darse de alta
password:
Artistas más visitados
Publicidad
TOP acordes y tablaturas de La Mancha de Rolando


San Ernesto
de La Mancha de Rolando
Puntúa este acorde/tab:      
(0.3/5)
Reportar este acorde/tab
  Añadir a tus favoritos
  Imprimir
San Ernesto- La Mancha de Rolando
Cabaña Elderly


Introducción: 
Arpegio con los siguientes acordes: ( Em-C-D*-Em-G-Am-D*-Em)

 

Em       C       D        Em 
En mi casa no se habla de vos
G        Am      D        Em
oigo los ecos del libertador
Nada me sobra nada me falta
Y vi tu cara en la puesta del sol

San ernesto por los cuatro vientos
Veo una pena empapada en sudor.
Miles de viudas lloran tus manos
Cantan al cielo su llanto, su dios

D                   Am                  Em
Y ahora va a buscarte tu canto infinito
D                   Am                   B7 
Andas por mi barrio queriendo volver... 
C                  D Em G Am D Em
queriendo volver...

Riff 1
Parte a

------------------------------------------------
------------------------------------------------ 
------------------------------------------------
-------5-----7--------5---5--------------7--9
-5h7----7------5h7---------7----5--7--5--7
------------------------------------3--5------







Parte b

-----------------------------------------------------
----------------------------------------------------- 
-----------------------------------------------------
---------5------5---------5--5----------------7—9
5h7-------7-------5h7----------7-----5--7—5--7
-----------------------------------------3--5--------

Repite parte a

En mi casa no se habla de vos
Se oigo los ecos del libertador
Nada me sobra nada me falta
Y vi tu cara en la puesta del sol

Riff parte a (dos veces)

San Ernesto por los cuatro vientos
Veo una pena empapada en sudor.
Miles de viudas lloran tus manos
Cantan al cielo su llanto, su dios

D5                                        A5 *
Y ahora va a buscarte tu canto infinito
D5                    A5                 B5 
Andas por mi barrio queriendo volver... 
C               D Em G Am D Em
queriendo volver...

*(despues de 'canto infinito' hace este arpegio de D5)

-------------------------------------- 
-------------------------------------- BIS
--------------------------------- -----
----------------7-7------7----7-7—
---5-5-5-5------5--5---5-----------

Solo

Montes de fuego, se oyen disparos,
Barras, estrellas y algun peloton
El comandante nunca se muere
Su foto quiere tener la razon.
D5                                    A5 *
Y ahora va a buscarte tu canto infinito
D5                           A5
Andas por mi barrio queriendo,
D5                           A5
Andas por mi barrio queriendo,
D5                          A5           B5
Andas por mi barrio queriendo volver... 
C               D Em G Am D Em
queriendo volver...

Solo

Arpegio del principio

Em        C       D        Em
Rie el traidor, rie la muerte
G         Am        D         Em
Pero el olvido nunca te ganó.



D*: 1 2 3 4 5 6 (cuerdas)
      x 3 x 4 5 x (nro. de traste).

Aguante la Mancha, Callejeros y A77Aque.
Esta se la dedico a palo y magma.Pancho.
		   
AcordesyTabs.com © 2008 Acordes y Tablaturas para guitarra. Tabs and Chords for guitar. Aviso Legal - Contacto
El uso de este sitio está sujeto a la aceptación de los términos y condiciones (35 usuarios online)