tablaturas, partituras y acordes para guitarra
Busca por banda/artista:
 
y/o título de la canción:
A B C D E F G H I J K L M N O P Q R S T U V W X Y Z 0 1 2 3 4 5 6 7 8 9 / Top 100 tabs
Categorías
Usuarios
usuario:
Darse de alta
password:
Artistas más visitados
Publicidad
TOP acordes y tablaturas de Goo Goo Dolls


Naked
de Goo Goo Dolls
Puntúa este acorde/tab:      
(0.3/5)
Reportar este acorde/tab
  Añadir a tus favoritos
  Imprimir
"Naked" 
Song Written by the Goo Goo Dolls
Tabbed by Amy Harriman
PLEASE NOTE: This version is a mild remix of the original version, don't be thro
by intro.(part 1) just because it's picking, it continues into the original song
after.
This is a pretty tricky tab,so please e-mail me with any questions and I
would be happy to help you: GtrGurl87@aol.com

Tuning (w/ Capo 1st fret): E-->F,A-->C,D-->E,G,B-->C,E-->F

Intro part 1 (picking):
-------------------------------
----0------0------0------0-----
------------------------0------
--0-----0-------0--------------
----------------------0--------
0------2------4----------------

-------------------------------
----0------0------0-------0----
-------------------------------
--0-----0-------0-------0------
-------------------------------
0------2------4-------2--------

(repeat 3X)

Intro Part 2:
-X-----------------------------  This is really easy to play.  keep in mind it w
-X-----------------------------  simpler because it is played with only one guit
-0-----------------------------  you strum this pattern more than once, but it's
-1-----------------------------  Listen to the song to get the timing. The way I
-0-----------------------------  down, down, down, up, up, down.  
-0-----------------------------  

-X-----------------------------  Same thing as before, strum down, down, down, u
-X-----------------------------  Then slide back to the where you started for in
-0-----------------------------  
-0-----------------------------
-4-----------------------------
-4-----------------------------
Repeat whole thing 2X.

Verse:
-X-X-X--0-----X-X-X----X-0--      Okay, this part is kinda tricky, but be patien
-X-X-X----0---X-X-X----0-0--      about it as you go, and you'll get it.  What m
-0-0-0--------X-X-X----4-X--      complicated is there's a certain way your supp
-1-1-1--------X-X-X----X-X--      the strings.  Again, listen to the song carefu
-0-0-0--------4-4-4----X-X--      can't get it email me with your questions and 
-0-0-0--------4-4-4----X-X--      help you out with this one.
Repeat 4X

Riff1
-X---------------------------    Like the strumming part of the intro., the key 
-X---------------------------    chords is strumming it with the rythm. Also, an
-0---------------------------    to this part it to stop the strings after each 
-1---------------------------    pattern (which in this case will be down down u
-0---------------------------    for where the words fit in.
-0---------------------------      
   


-X---------------------------
-X---------------------------
-0---------------------------
-0---------------------------
-4---------------------------
-4---------------------------

CHORUS
-----------------------------    This part is exactly the same as intro. part 1.
----0------0------0------0---
------------------------0----
--0-----0-------0------------
----------------------0------
0------2------4--------------

-----------------------------
----0------0------0-------0--
-----------------------------
--0-----0-------0-------0----
-----------------------------
0------2------4-------2------
Play 2 1/2 X (you play the first part 3X, but the second only twice)


-X---------------------------    This part is optinal, but it does sound better 
-X---------------------------    space in with it.  Listen to the song to get th
-X---------------------------    going to use short quick strums that go down do
-0---------------------------    slide to the next chord below this, and do the 
-4---------------------------
-4---------------------------

-X---------------------------
-X---------------------------
-X---------------------------
-1---------------------------
-0---------------------------
-0---------------------------


Once you learn everything I've tabbed here, you basically repeat everything (exc
until you reach the end of the song.  The order from here on is something like t
Intro. Part2 (again)
riff1 (again)
Chorus (again)

*And don't forget, for the billionth time I know I've said this, just listen to 
parts right, and if you still can't get it then please just e-mail me and I'll d
can to help.

Thanks a lot and I hope you enjoy this tab!!  
		   
AcordesyTabs.com © 2008 Acordes y Tablaturas para guitarra. Tabs and Chords for guitar. Aviso Legal - Contacto
El uso de este sitio está sujeto a la aceptación de los términos y condiciones (68 usuarios online)