tablaturas, partituras y acordes para guitarra
Busca por banda/artista:
 
y/o título de la canción:
A B C D E F G H I J K L M N O P Q R S T U V W X Y Z 0 1 2 3 4 5 6 7 8 9 / Top 100 tabs
Categorías
Usuarios
usuario:
Darse de alta
password:
Artistas más visitados
Publicidad
TOP acordes y tablaturas de Goo Goo Dolls


Name
de Goo Goo Dolls
Puntúa este acorde/tab:      
(0.3/5)
Reportar este acorde/tab
  Añadir a tus favoritos
  Imprimir
                           NAME
              Words and Music by John Rzeznik

TUNING:
1=E 4=E
2=E 5=A
3=A 6=D

GUITARS:
Guitar 1=acoustic
Guitar 2=electric
Guitar 3=acoustic

SPECIAL NOTATION:
/=slide up
h=hammer-on
p=pull-off
X=muted string
=slide down   ()=tied note
The + sign in a chord symbol normally means augmented.
But for the sake of roomage I used it for add.

FILLS:
  Rhy. Fill 1
e}----0-----0--0----0--0-|
e}----0-----0--0----0--0-|
A}-0--0--0--0--0----0--0-|
E}-9--7--0--7--7h9--7----|
A}-----------------------|
D}-----------------------|

  Rhy. Fill 2
e}-0--0-----0--0------0-|
e}-0--0-----0--0------0-|
A}-0--0--0-----0------0-|
E}-9--7--9-----7h9----7-|
A}-------------9------7-|
D}----------------------|

INTRO
  Moderately Fast Half-Time Feel=145
  A5                A5/G#            Dsus2 
  Rhy.Fig.1
*Gtr. 1
  let ring throughout
[]------0--------0-|------0-------0-|------0-------0-|
[]------0--------0-|------0-------0-|------0-------0-|
[]----0------0-----|----0-----0-----|----0---0-0-----|
[]-0--0----0-------|----0-------0---|-0--0---0---0---|
[]-0-----------0---|-0----------0---|-5----------5---|
[]-7-----------7---|-6--------------|----------------|
 *two guitars arranged for one

  F#m7    A5/E    D6add9       Dmaj9 Dsus2
[]------0------0-|-------------0----|-0-----0---0---0-|
[]------0------0-|-------------0----|-0-----0---0---0-|
[]----0------0---|----0----0---0----|-0-----0---0-----|
[]----0------0---|----5/7--7h9-9/12-|12-12-12---------|
[]-0------0------|----7/9--9---9/12-|12-12-12----12---|
[]-4------2------|-0----------------|-0--0----0---0---|

       D6add9    Dmaj9 D6add9
                               End Rhy.Fig.1
[]---0-----------0--0-|---------0---------0-|
[]---0-----------0--0-|---------0---------0-|
[]---0-0---------0----|-0-0--0--0--0--------|
[]-----5/9--7h9--9----|-9p7--0--7--7h9--7---|
[]-0---7/9--9----9----|-9----9-----9----9---|
[]-0------------------|---------------------|

Gtr. 1 w/Rhy.Fig.1
  A5          A5/G#     Dsus2       F#m7   A5/E
Gtr. 2 w/"E-bow"
[]-0---------|---------|-----------|------------|
[]-----------|---------|-----------|------------|
[]-----------|---------|-----------|------------|
[]-----------|---------|-----------|------------|
[]-----------|---------|-----------|------------|
[]-----------|---------|-----------|------------|

Gtr. 2 tacet
  D6+9  Dmaj9 Dsus2       D6+9  Dmaj9 D6+9
                                          1.)And
[]-----------|--------|--------------|----------|
[]-----------|--------|--------------|----------|
[]-----------|--------|--------------|----------|
[]-----------|--------|--------------|----------|
[]-----------|--------|--------------|----------|
[]-----------|--------|--------------|----------|
VERSE
  Gtr. 1 w/Rhy.Fig.1, 2x
A5                      A5/G#                Dsus2
ev    en  though the mo   ment passed me  by,      I
scars are sou    ve  nirs you  never  lose,        the

F#m7           A5/E     D6+9 Dmaj9 Dsus2 D6+9 Dmaj9 D6+9
still can't turn a  way.                            'Cuz
past  is    nev  er far.                             And

A5                    A5/G#                    Dsus2
all the dreams you nev  er  thought you'd lose   got 
did you lose   yourself somewhere   out   there, did you

F#m7         A5/E       D6+9 Dmaj9 Dsus2 D6+9 Dmaj9 D6+9
tossed a  long the way.                              And
get    to be   a   star?                             And

Gtr. 1 w/Rhy.Fig.1, 1st 7 meas.
A5                     A5/G#               Dsus2
let   ters that you nev er meant to   send,          get
don't it   make you sad to know  that life           is

                                      END HALF-TIME FEEL
                           Gtr. 1 w/Rhy.Fill 1, 1st time
                           Gtr. 1 w/Rhy.Fill 2, 2nd time
F#m7           A5/E     D6+9 Dmaj9 Dsus2 D6+9 Dmaj9 D6+9
lost or  thrown a  way.                              And
more than who   we are?                              We

CHORUS
  F#m7                    Esus4 
  now  we're grown up  or     phans  that
  grew up    way   too fast      and now there's
Gtr. 1
[]-----0-----4-----5---0-|-------0--------------|
[]-----0-----0-----0---0-|-------0--------------|
[]-----0-----0-----0---0-|----0-------4---2---0-|
[]-0---0-----0-----0---0-|----0-----------0---0-|
[]-4---4-----4-----------|-2--------------------|
[]-4---------------------|-2--------------------|

  Dsus2
  nev er    knew their names.                We
  nothin'   to   be    lieve.
[]-------0-------0------0-|----------0-------0-|
[]-------0-------0------0-|----------0-------0-|
[]-------0-------0--------|----0--------0h2--0-|
[]-------0--0-------0-----|-------0----------0-|
[]-------5----------------|------------------0-|
[]-0-----0----------------|-0------------------|

  F#m7                   Esus4          A/E
  don't be   long  to no   one   that's a shame.
  Re    runs all   be come our   his    tory.
[]------0----4-4-5----0-|-----------------------0-|
[]------0----0---0----0-|--------4------5-------5-|
[]------0----0---0------|-0---0--2------4---------|
[]------0---------------|-0---0--0------0---------|
[]-4----4---------------|-X-----------------------|
[]-4--------------------|-2-----------------------|

  Dsus2          A/C# Dsus2                 A
                                        But if
                                            A
[]----0-----0----0---|----0-----0--0--0--0--0-|
[]----0-----0----5---|----0-----9--9--7--7--0-|
[]-0--0-----0----4---|----0-----7--7--5--5--4-|
[]-0--0--0-----0-----|-0--0--0----------------|
[]-0-----------------|----0-------------------|
[]-0-----------------|------------------------|

  F#m7                     Esus4      A/E
  you could  hide   be  side       me
  ti  red    song keeps playin'    on    a ti
[]--------0--4----5--------|----0--4--5-------|
[]--------0--0----0--------|----0--0--0-------|
[]--------0--0----0------0-|----0--2--4----0--|
[]-------------------------|-------0--0-------|
[]-4-----------------------|------------------|
[]-4-----------------------|-2----------------|

  Dsus2
  may be for a while.}                     And
  red    ra  di o.   }
[]----0------0-----0-|-0-----0--0-------------|
[]----0------0-----0-|-0-----0--0-------------|
[]----X------0-------|-X-----X--------0-----0-|
[]----X---0--X--0----|-X--0--X-----0--0--0----|
[]-7--7------7-------|-7-----7----------------|
[]-0-----------------|-------0----------------|

  F#m7                 Esus4               Dsus2
  I      won't tell no        one your     name.
[]-------4-----5----0-|-------0---------0-|-----------|
[]-------0-----0----0-|----0--0---------0-|-----------|
[]-------0-----0------|-0--0--0---4--2--0-|-----------|
[]----0-----0---------|-0--0--0---------0-|-----------|
[]-4--4---------------|-0-----------------|-----------|
[]-4------------------|-2-----------------|-0---------|


          And  I won't tell 'em your
[]------------|---------------------|
[]------------|---------------------|
[]------------|---------------------|
[]------------|---------------------|
[]------------|---------------------|
[]------------|---------------------|

HALF-TIME FEEL
  A5               A5/G#            Dsus2 
  name.
[]------0-------0-|------0-------0-|------0---------|
[]------0-------0-|------0-------0-|------0---------|
[]----------0---0-|----0-----0---0-|----0-----0-0-0-|
[]--------0-------|----0-------0---|-0--0---0---0---|
[]-0--0-------0---|------------0---|-5--------------|
[]-7--------------|-6--------------|----------------|

  F#m7         A5/E          D6+9        Dmaj79
  I won't tell 'em your name.
[]---------0-------------0--|------------0-----|
[]---------0-------------0--|------------0-----|
[]-----0---0---------0------|----0---0---0-----|
[]-----0-------------0------|----5/7-7h9-9/12--|
[]-0-----------0------------|----7/9-9---9/12--|
[]-4-----------2------------|-0----------------|

  Dsus2                 D6+9    Dmaj9    D6+9
                                               2.) And
[]-0--0-0-0-0-0-0-|---0-----0-----0--|---0---0--0---0-|
[]-0--0-0-0-0-0-0-|---0-----0-----0--|---0---0--0---0-|
[]-0--0-0-0-0-0-0-|-----0---0---0----|-0-0-0-0--0-0-0-|
[]12-----12-------|-0---5/7-7h9-9----|-9-7-0-7--9-7---|
[]12-----12-------|-7---7/9-9---9----|-9-9-9-9----9---|
[]-0------0-------|-0----------------|----------------|

1st time to VERSE 2
2nd time to INTERLUDE

INTERLUDE
Gtr. 1 w/Rhy.Fig.1, 1st 7 meas.
A5     A5/G#       Dsus2   F#m7         A5/E
Mmm,      mmm, mmm.        I won't tell 'em your name.

                                      END HALF-TIME FEEL
D6+9  Dmaj9    Dsus2    D6+9  Dmaj9 D6+9
                                    Gtr. 1 w/Rhy. Fill 1
                                                   Ow!

GUITAR SOLO
  F#m7              Esus4            Dsus2
Gtr. 1
[]-0---0-0-0-0-0-0-|-0----0---0-0-0-|-0--0--0-0-0-0-|
[]-0---0-0-0-0-0-0-|-0----0---0-0-0-|-0--0--0-0-0-0-|
[]-0---0-0-0-0-0-0-|-0----0---2-4-2-|-0--0--0-2-4-5-|
[]-7h9-9-9-9-7-5---|----0-----------|---------------|
[]-----------------|----------------|---------------|
[]-----------------|----------------|---------------|
  let ring throughout

  Rhy.Fig.2
Gtr. 3
[]-----------------|----------------|---------------|
[]-----------------|----------------|---------------|
[]-----0-----0-0---|----0-----0-0---|----0----0---0-|
[]-----0-----0-0---|----0-----0-0---|----0--0-0-0-0-|
[]-4-------4---4---|-2------2---2---|-0-----0---0---|
[]-4-------4-------|-2------2-------|-0-----0---0---|

                    Gtr. 3 w/Rhy.Fig.2, 4 1/2x
                    F#m7             Esus4
[]---0---0---0---0-|-0--0-0-0-0-0-0-|-0-0-0-0-0---0-0-|
[]---0---0---0---0-|-0--0-0-0-0-0-0-|-0-0-0-0-0---0-0-|
[]---4---4---5---7-|-7--7-7-7-7-7-7-|-7-4-4-2-2-4-2-0-|
[]-----------------|----------------|-----------------|
[]-----------------|----------------|-----------------|
[]-----------------|----------------|-----------------|

      End Rhy.Fig.2 Gtr. 2 w/"E-bow"
[]-----------------|--------5---5---|-5----5-5--------|
[]-----------------|----------------|-----------------|
[]---0---0---0-----|----------------|-----------------|
[]-0-0-0-0-0-0-0---|----------------|-----------------|
[]-0---0---0---0---|----------------|-----------------|
[]-0---0---0---0---|----------------|-----------------|

Gtr. 2 tacet
  Dsus2                             F#m7
[]-0--0--0-------|----0-0-0---0-0--|-0-0-0-0---0-0-0-|
[]-0--0--0-------|----0-0-0---0-0--|-0-0-0-0---0-0-0-|
[]-0--0--0----0--|----0-0-0---0-0--|-0-2-4-5---4-0-0-|
[]-0--0--0----0--|--------0-----0--|-----------------|
[]---------------|-----------------|-----------------|
[]----------0----|-----------------|-----------------|

  Esus4            Dsus2
[]-0-0-0-0--0-0-0-|-0-----0-0-0-0-0-0-|---0--0---0---0-|
[]-0-0-0-0--0-0-0-|-0-----0-0-0-0-0-0-|---0--0---0---0-|
[]---9-9-9--9-9-9-|-7/11-12--12----11-|--12-12--11--11-|
[]----------------|-------------------|----------------|
[]----------------|-------------------|----------------|
[]----------------|-------------------|----------------|

  F#m7              Esus4             Dsus2
[]-0-0-0---0-0-0-0-|-0-0--0---0-0----|-0--0--0--0-0-|
[]-0-0-0---0-0-0-0-|-0-0--0---0-0----|-0--0--0--0-0-|
[]111212--12111111-|1112-14--1616/17-|17-16-16-16---|
[]-----------------|-----------------|--------------|
[]-----------------|-----------------|--------------|
[]-----------------|-----------------|--------------|

                   F#m7
[]-0---0-0---0--0-|-0--0--0-0-0-0-0-|
[]-0---0-0---0--0-|-0--0--0-0-0-0-0-|
[]16171616--14----|12-9-1111121212-|
[]----------------|-----------------|
[]----------------|-----------------|
[]----------------|-----------------|

  Esus4                  Dsus2
Gtr. 2 w/o "E-bow"
[]-----10-10-----9----7-|-5---4---2--0-|-------------4-|
[]----------------------|--------------|---------------|
[]----------------------|--------------|---5--4---5----|
[]----------------------|--------------|---------------|
[]----------------------|--------------|---------------|
[]----------------------|--------------|---------------|

Gtr. 1
[]-0----0--0--0----0----|-0---0---0--0-|---0--0---0--0-|
[]-0----0--0--0----0----|-0---0---0--0-|---0--0---0--0-|
[]12p1111-11-11h1212/14-|12--11--12-14-|--16-16--17----|
[]----------------------|-0------------|---------------|
[]----------------------|--------------|---------------|
[]----------------------|--------------|---------------|

                           Gtr. 2 tacet
  F#m7                     Esus4 
[]-4p5---2----------------|-----------------------|
[]------------------------|-----------------------|
[]------------------------|-----------------------|
[]------------------------|-----------------------|
[]------------------------|-----------------------|
[]------------------------|-----------------------|

[]-0-----0--0-----0--0--0-|-0-----0--0----0--0--0-|
[]-0-----0--0-----0--0--0-|-0-----0--0----0--0--0-|
[]1716-14-1412-12-12-12-|1211-11-11---12-12-12-|
[]------------------------|-----------------------|
[]------------------------|-----------------------|
[]------------------------|-----------------------|

  Dsus2
Gtr. 1
[]-0---------------|----------------|---------------|
[]-0---------------|----------------|---------------|
[]12---------------|----------------|---------------|
[]-----------------|----------------|---------------|
[]-----------------|----------------|---------------|
[]-----------------|----------------|---------------|

Gtr. 3
[]-0---------------|----------------|---------------|
[]-0---------------|----------------|---------------|
[]-0---------------|----------------|---------------|
[]-0---------------|----------------|---------------|
[]-0---------------|----------------|---------------|
[]-0---------------|----------------|---------------|

VERSE
 HALF-TIME FEEL
  A5                  A5/G#
     3.)I think a-bout   you all the time, 
Gtrs. 1 & 3
[]------0---------0--|-------0--------0----|
[]------0---------0--|-------0--------0----|
[]------------0---0--|----------0----------|
[]----0---------0----|-------------0-------|
[]-0-----------------|----0----------------|
[]-7-----------------|-6-------------------|

  Dsus2            F#m7        A5/E
               but  I don't need the same.
[]------0-------0-|-------------------0-|-----------0--|
[]------0-------0-|-------------------0-|-----------0--|
[]----0-----0---0-|---------0-----0---0-|-------0---0--|
[]----0---0---0---|------0--------0-----|---5/7-7h9-9/12
[]-5----------5---|---------------------|---7/9-9---9/12
[]----------------|-4----------2--------|-0------------|

Gtr. 2
[]----------------|-0----------0--------|-0------------|
[]----------------|-0----------0--------|-0------------|
[]----------------|-5----------4--------|-4------------|
[]----------------|---------------------|--------------|
[]----------------|---------------------|--------------|
[]----------------|---------------------|--------------|

Gtr. 2 tacet
  Dsus2                 D6+9    Dmaj9        D6+9
                                                    It's
[]-0--0-0-0-0-0-0-|-0-0-----------0--|---0---0--0---0--|
[]-0--0-0-0-0-0-0-|-0-0-----------0--|---0---0--0---0--|
[]-0--0-0-0-0-0-0-|-0-0-0---0---0----|-0-0-0-0--0------|
[]12-12--12-------|-----5/7-7h9-9----|-9-7-0-7--9-7----|
[]12-12--12-------|-----7/9-9---9----|-9-----9--9-9----|
[]----------------|------------------|-----------------|

  A5                   A5/G#
  lonely where you are.      Come back down
[]-------0----------0-|------0----------0-|
[]-------0----------0-|------0----------0-|
[]-----------0--------|----0------0-------|
[]----0---------0-----|----0---------0----|
[]--------------------|-------------------|
[]-7------------------|-6-----------------|

  Dsus2           F#m7         A5/E          Dsus2
              and I won't tell em your name.
[]------0------0-|----------------------0---|----------|
[]------0------0-|----------------------0---|----------|
[]----0----0-0---|------0------------0------|----------|
[]----0------0---|------0------------0------|----------|
[]-5-------------|--------------------------|----------|
[]---------------|-4-----------2------------|-0--------|

              Dmaj9          D        A5
[]-----------|-0-------0--0--0--0----|-0-------|-------|
[]-----------|-0-------0--0--0--0----|-0-------|-------|
[]-----------|-0----0--0--0--0--0----|-0-------|-------|
[]-----------|-7h9--9-----9--7--0----|-0-------|-------|
[]-----------|-9----9-----9-----0----|-0-------|-------|
[]-(0)-------|-----------------------|-7-------|-------|



There you go.  Another cool song done up especially 4 U.
Just for you.  I swear.

When playing this song don't try to play it note-4-note.
You'll go insane.  Just try to play the strings in the
specified rhythm.  Move with the song's feel.  Play your
own variations as well.

Enjoy it.  Play it.  Don't make me come down there and
break my foot off in yo' ass.  I swear I will.  (laffs)
I'm just playin'.  You know I luv U.

If you have any questions or comments you can reach me
at:  LAngel234@aol.com

PEACE
		   
AcordesyTabs.com © 2008 Acordes y Tablaturas para guitarra. Tabs and Chords for guitar. Aviso Legal - Contacto
El uso de este sitio está sujeto a la aceptación de los términos y condiciones (25 usuarios online)