tablaturas, partituras y acordes para guitarra
Busca por banda/artista:
 
y/o título de la canción:
A B C D E F G H I J K L M N O P Q R S T U V W X Y Z 0 1 2 3 4 5 6 7 8 9 / Top 100 tabs
Categorías
Usuarios
usuario:
Darse de alta
password:
Artistas más visitados
Publicidad
TOP acordes y tablaturas de Zen


Estás en: Inicio > Letra Z > Acordes y tablaturas de Zen > Seguiré
Seguiré
de Zen
Puntúa este acorde/tab:      
(0.8/5)
Reportar este acorde/tab
  Añadir a tus favoritos
  Imprimir
        ______
Dsus   :xx0233
G      :320033
Gsus   :x30033
Gsus2  :300033
Gsus2/E:x02233


Intro
   Dsus     Gsus2    Gsus2/E  Gsus2/E   Dsus     Gsus2   Gsus2/E   Gsus2/E
E-----3--------3--------3--------3---------3--------3--------3--------3---
B----3-3------3-3------3-3------3-3-------3-3------3-3------3-3------3-3--
G---2---2----0---0----2---2----2---2-----2---2----0---0----2---2----2---2-
D--0------------------------------------0---------------------------------
A--------------------0--------0---------------------------0--------0------
E-----------3------------------------------------3------------------------


   G        Gsus2    Gsus2/E   Gsus2/E  G        Gsus2    Gsus2/E  Gsus2/E
E-----3--------3--------3---------3--------3--------3--------3--------3---
B----3-3------3-3------3-3-------3-3------3-3------3-3------3-3------3-3--
G---0---0----0---0----2---2-----2---2----0---0----0---0----2---2----2---2-
D-------------------------------------------------------------------------
A--2-----------------0---------0--------2-----------------0--------0------
E-----------3------------------------------------3------------------------


Dsus  Gsus2     Gsus2/E  Gsus2/E
Fue...    tan dificil
      Dsus  Gsus2      Gsus2/E  Gsus2/E
describir   lo que    siento
      G  Gsus2     Gsus/E  Gsus2/E
y a pesar    del esfuerzo
     G  Gsus2   Gsus2/E  Gsus2/E
mantuvimos   la calma
   Gsus2  Gsus2
aunque tambien
   Gsus2/E  Gsus2/E
si me    rendi
    Gsus2  Gsus2
fue por volver
   Gsus2/E  Gsus2/E
a  comen....zar


Chorus
       Dsus  Gsus2  Gsus2/E  Gsus2/E
Porque siiiiigo  creyendo
       Dsus  Gsus2   Gsus2/E  Gsus2/E
porque siiiiigo a tu lado
     G   Gsus2  Gsus2/E Gsus2/E
y yo sigo   tus pasos
     Gsus Gsus Dsus
seguireee



Si me aleje
a buscar un refugio
solo espero
sea pronto
no me tomes
por sorpresa
aunque tambien
si me rendi
fue por volver
acomenzar

Chorus
G     Gsus2  Gsus2/E  Gsus2/E
  Necesito saber
G         Gsus2  Gsus2/E  Gsus2/E
  si me escuuucharas
G      Gsus2  Gsus2/E  Gsus2/E
  te alcaaanzare
G       Gsus2  Gsus2/E  Gsus2/E
  antes de mooorir

Chorus
		   
AcordesyTabs.com © 2008 Acordes y Tablaturas para guitarra. Tabs and Chords for guitar. Aviso Legal - Contacto
El uso de este sitio está sujeto a la aceptación de los términos y condiciones (55 usuarios online)