tablaturas, partituras y acordes para guitarra
Busca por banda/artista:
 
y/o título de la canción:
A B C D E F G H I J K L M N O P Q R S T U V W X Y Z 0 1 2 3 4 5 6 7 8 9 / Top 100 tabs
Categorías
Usuarios
usuario:
Darse de alta
password:
Artistas más visitados
Publicidad
TOP acordes y tablaturas de Zen


Estás en: Inicio > Letra Z > Acordes y tablaturas de Zen > Seguiré
Seguiré
de Zen
Puntúa este acorde/tab:      
(0.4/5)
Reportar este acorde/tab
  Añadir a tus favoritos
  Imprimir
Seguire
Zen
Album:Zen(2002)

        e  ---3---3---3-------3------0-----0-
        b  ---3---3---3-------3------3-----3-
        g  ---2---0---2-------0------0-----2-
        d  ---0---0---2-------2------0-----2-
        a  ---x---2---0-------2------2-----0-
        e  ---x---3---x-------x------3-----x-

           Dsus4  G  A7sus4  Em7/B  Em7/G  Asus4

Bueno muchachones y locos de la guitarra
ahi les va la letra y acordes de este buen tema 
del grupo peruano Zen ,a tocar se ha dicho

Intro:
Dsus4    G          A7sus4 (2v)
Em7/B    G          A7sus4 (2v)

     e --------3-----|-------3-----|-------3-----|-------3--------------
     b ------3---3---|-----3---3---|-----3---3---|-----3---3------------
     g ----2-------2-|---0-------0-|---2-------2-|---2-------2----------
     d --0-----------|-------------|-------------|----------------------
     a --------------|-------------|-0-----------|-0--------------------
     e --------------|-3-----------|-------------|----------------------

     e --------3-----|-------3-----|-------3-----|-------3--------------
     b ------3---3---|-----3---3---|-----3---3---|-----3---3------------
     g ----2-------2-|---0-------0-|---2-------2-|---2-------2----------
     d --------------|-------------|-------------|----------------------
     a --2-----------|-------------|-0-----------|-0--------------------
     e --------------|-3-----------|-------------|----------------------


Estrofa:
Dsus4   G           A7sus4
Fue      tan dificil
Dsus4   G             A7sus4
escribir lo que siento
Dsus4    G            A7sus4
y a pesar del esfuerzo
Dsus4     G        A7sus4
mantuvimos la calma

Precoro:
Em7/B         G  
Aunque te envie
A7sus4
si me rendi
Em7/B        G
fue por volver
A7sus4
a comenzar

Coro:
Dsus4   G           A7sus4
porque sigo queriendo
Dsus4   G           A7sus4
porque sigo a tu lado
Dsus4     G        A7sus4
y yo sigo tus pasos 
Em7/G   Asus4
seguire

Estrofa:
Dsus4  G        A7sus4
si      me aleje
Dsus4   G          A7sus4
a buscar un refugio
Dsus4      G           A7sus4
solo espero sera pronto
Dsus4      G            A7sus4
no me tomes por sorpresa

Precoro:
Em7/B         G
Aunque te envie
A7sus4
si me rendi
Em7/B       G
fue por volver
A7sus4
a comenzar

Coro:
Dsus4   G           A7sus4
porque sigo queriendo
Dsus4   G           A7sus4
porque sigo a tu lado
Dsus4  G           A7sus4
y yo  sigo tus pasos 
Em7/G   Asus4
seguire

Puente:
G             A7sus4
necesito saber
G               A7sus4
si me escucharas
G           A7sus4
te alcanzare
G              A7sus4
antes de partir

Coro:
Dsus4   G           A7sus4
porque sigo queriendo
Dsus4   G           A7sus4
porque sigo a tu lado
Dsus4  G           A7sus4
y yo  sigo tus pasos 
Em7/G   A7sus4
seguire

eso es todo si quieren tabs de bajo comuniquense a
justicia_poetica@hotmail.com ,un saludo pa la tegen (o sea gente)
de mi banda ,de la U.Católica y nada mas...¡VIVA EL PERU CARAJO!.
		   
AcordesyTabs.com © 2008 Acordes y Tablaturas para guitarra. Tabs and Chords for guitar. Aviso Legal - Contacto
El uso de este sitio está sujeto a la aceptación de los términos y condiciones (40 usuarios online)