tablaturas, partituras y acordes para guitarra
Busca por banda/artista:
 
y/o título de la canción:
A B C D E F G H I J K L M N O P Q R S T U V W X Y Z 0 1 2 3 4 5 6 7 8 9 / Top 100 tabs
Categorías
Usuarios
usuario:
Darse de alta
password:
Artistas más visitados
Publicidad
TOP acordes y tablaturas de Goo Goo Dolls


Smash3
de Goo Goo Dolls
Puntúa este acorde/tab:      
(0.3/5)
Reportar este acorde/tab
  Añadir a tus favoritos
  Imprimir
Smash

Standard Tuning

Chords:
E5  - x79900    A5 - x02200
C#5 - x46600    B5 - x24400
E   - 022100    A  - x02220

Intro
Guitar 1
e|---0-----2-----4--|--2-0-2-0-2-0-|-----0------2----0-|------2---0----
B|------0-----0-----|--------------|-------0-----------|-0-----------0-
G|-4----------------|--------------|--2------2----2----|---2-----------
D|------------------|--------------|-------------------|---------------
A|------------------|--------------|-------------------|---------------
E|------------------|--------------|-------------------|---------------

Guitar 2
e|----------------|----------------|----------------|------------------
B|----------------|----------------|----------------|------------------
G|--9--9--x--9--9-|--9--8--8--8--8-|--8--9--x--9--9-|--9---8--8--8--8--
D|--x--x--x--x--x-|--x--x--x--x--x-|--x--x--x--x--x-|--x---x--x--x--x--
A|--7--7--x--7--7-|--7--7--7--7--7-|--7--7--x--7--7-|--7---7--7--7--7--
E|----------------|----------------|----------------|------------------


Verse
E5   A5 C#5          B5
Hey. . . . .what are ya thinkin'
   A5           C#5   B5
I tried to read your face
E5   A5 C#5          B5
Say. . . . .say what you're thinkin'
     A5           C#5  B5
Don't carry round that pain

Chours
A5          B5      E          A
Everytime I see you pickin' at yourself
              D5                    E5
I love . . .I love when things work out


Verse
Smash. . .I heard ya cryin'
Seven times this year
Crash. . .but now you're smilin'
Holdin' back your tears


Chours
Everytime i see you pickin' at yourself
I love . . .I love when things work out
Everytime I see you torturin' yourself
I love . . .I love when things work out


Bridge
      A                                E
And I see it from another place right now
    A                            B5
I'm comin' home before I hit the ground

Right back where I want to be right now


Play intro then
E5    A5 C#5  B5         A5    C#5  B5
Smash. . . . . And I feel it
REPEAT 3X
		   
AcordesyTabs.com © 2008 Acordes y Tablaturas para guitarra. Tabs and Chords for guitar. Aviso Legal - Contacto
El uso de este sitio está sujeto a la aceptación de los términos y condiciones (8 usuarios online)