tablaturas, partituras y acordes para guitarra
Busca por banda/artista:
 
y/o título de la canción:
A B C D E F G H I J K L M N O P Q R S T U V W X Y Z 0 1 2 3 4 5 6 7 8 9 / Top 100 tabs
Categorías
Usuarios
usuario:
Darse de alta
password:
Artistas más visitados
Publicidad
TOP acordes y tablaturas de Alejandro Sanz


Estás en: Inicio > Letra A > Acordes y tablaturas de Alejandro Sanz > Se le apagó la luz
Se le apagó la luz
de Alejandro Sanz
Puntúa este acorde/tab:      
(0.2/5)
Reportar este acorde/tab
  Añadir a tus favoritos
  Imprimir
AHI TIENE UN 'POQUITO' ESPERO LE GUSTE :

¡!¡!¡!¡!¡!¡!¡!¡!¡!INTRO!¡!¡!¡!¡!¡!¡!¡!¡!¡!¡!¡!¡!¡!
___ 
_  
_) e|---------4-4-4/6-9-9-6-4---------------------
   b|-----4/6-----------------4p2----2-2-----------
   g|-1-1-------------------------1h3---------------
   d|---------------------------------------------
_  a|---------------------------------------------
_) e|---------------------------------------------
___/

!¡!¡!¡!¡!¡!¡!¡!¡!¡!¡!¡!solo¡!¡!¡!¡!¡!¡!¡!¡!¡!¡!¡!¡

ES LO QUE PUDE
___
_  
_) e|---------------------------------------------
   b|---------------------------------------------
   g|-------------6-6---6-8-8b/6------------------
   d|---------6-8-----8---------------------------
_  a|---4-6/8-------------------------------------
_) e|-4-------------------------------------------
___/


!¡!¡!¡!¡!¡!¡!¡!¡!¡!¡!ARREGLOS!¡!¡!¡!¡!¡!¡!¡!¡!¡!¡!

1.-
___
_  
_) e|-------4-6-4---------------------------------
   b|---4/6---------------------------------------
   g|-1-------------------------------------------
   d|---------------------------------------------
_  a|---------------------------------------------
_) e|---------------------------------------------
___/

2.-
___
_  
_) e|-4/6-4---------------------------------------
   b|-------4p2h4-6-6-----------------------------
   g|---------------------------------------------
   d|---------------------------------------------
_  a|---------------------------------------------
_) e|---------------------------------------------
___/

3.-
___
_  
_) e|---------------------------------------------
   b|-6p4-2-2-2-2-------2-------------------------
   g|-----------------1---1/2---------------------
   d|-------------1h3-----------------------------
_  a|---------------------------------------------
_) e|---------------------------------------------
___/

4.-
___
_  
_) e|-------4-4-----------------------------------
   b|---4/6---------------------------------------
   g|-1-------------------------------------------
   d|---------------------------------------------
_  a|---------------------------------------------
_) e|---------------------------------------------
___/

5.-
___
_  
_) e|---------------------------------------------
   b|-----4/6-4-2-4-2-----------------------------
   g|-1-1-------------2---------------------------
   d|---------------------------------------------
_  a|---------------------------------------------
_) e|---------------------------------------------
___/

6.-
___
_  
_) e|--9p8----------------------------------------
   b|------9--------9-----------------------------
   g|--------8-8/10-------------------------------
   d|---------------------------------------------
_  a|---------------------------------------------
_) e|---------------------------------------------
___/

7.-

_  
_) e|---------------------------------------------
   b|---------------------------------------------
   g|-1-1/3-1p0h1---------------------------------
   d|---------------------------------------------
_  a|---------------------------------------------
_) e|---------------------------------------------
___/


8.-


_  
_) e|--------3/4-4--------------------------------
   b|--4-4/6--------------------------------------
   g|---------------------------------------------
   d|---------------------------------------------
_  a|---------------------------------------------
_) e|---------------------------------------------
___/

9.-


_  
_) e|--------12/11-9------------------------------
   b|-9-9h11--------9-----------------------------
   g|---------------------------------------------
   d|---------------------------------------------
_  a|---------------------------------------------
_) e|---------------------------------------------
___/

10.-
___
_  
_) e|---------------------------------------------
   b|-9p8h9---------------------------------------
   g|---------------------------------------------
   d|---------------------------------------------
_  a|---------------------------------------------
_) e|---------------------------------------------
___/

11.-
___
_  
_) e|---------------------------------------------
   b|-4/6-9-9-9-----------------------------------
   g|---------------------------------------------
   d|---------------------------------------------
_  a|---------------------------------------------
_) e|---------------------------------------------
___/

12.-
___
_  
_) e|---------------------------------------------
   b|-6-6-6p4-2-2---------------------------------
   g|---------------------------------------------
   d|---------------------------------------------
_  a|---------------------------------------------
_) e|---------------------------------------------
___/

13.-
___
_  
_) e|---------------------------------------------
   b|-7/6-----------------------------------------
   g|---------------------------------------------
   d|---------------------------------------------
_  a|---------------------------------------------
_) e|---------------------------------------------
___/

14.-
___
_  
_) e|---------------------------------------------
   b|-9/11-9-9------------------------------------
   g|---------------------------------------------
   d|---------------------------------------------
_  a|---------------------------------------------
_) e|---------------------------------------------
___/

15.-
___
_  
_) e|-----4-4-4-----------------------------------
   b|-4/6-----------------------------------------
   g|---------------------------------------------
   d|---------------------------------------------
_  a|---------------------------------------------
_) e|---------------------------------------------
___/

!¡!¡!¡!¡!¡!¡!¡!¡!FINAL!¡!¡(POR FIN)¡!¡!¡!¡!¡!¡!¡!¡!


___
_  
_) e|-----1---------------------------------------
   b|-----------4-----2---------------------------
   g|-0H1---0H1---0H1-----------------------------
   d|---------------------------------------------
_  a|---------------------------------------------
_) e|---------------------------------------------
___/

PUES BIEN ESPERO LE SIRVA DE ALGO 
NO SOY PRO PERO LE HICE LA LUCHA.

AHHH Y EL SOLO AHI LE DEJO UN PEDAZO PA QUE LO 
INTENTE UD.POR QUE YO NO PUDE TODO, 
SI LO SACO SE LO MANDO LUEGO.


!¡!¡!¡!¡!¡!¡!¡!¡!¡!¡!¡!¡!¡!¡!¡!¡!¡!¡!¡!¡!¡!¡!¡!¡!¡
		   
AcordesyTabs.com © 2008 Acordes y Tablaturas para guitarra. Tabs and Chords for guitar. Aviso Legal - Contacto
El uso de este sitio está sujeto a la aceptación de los términos y condiciones (26 usuarios online)