tablaturas, partituras y acordes para guitarra
Busca por banda/artista:
 
y/o título de la canción:
A B C D E F G H I J K L M N O P Q R S T U V W X Y Z 0 1 2 3 4 5 6 7 8 9 / Top 100 tabs
Categorías
Usuarios
usuario:
Darse de alta
password:
Artistas más visitados
Publicidad
TOP acordes y tablaturas de Bersuit Vergarabat


Se Viene
de Bersuit Vergarabat
Puntúa este acorde/tab:      
(0.4/5)
Reportar este acorde/tab
  Añadir a tus favoritos
  Imprimir
Bueno este tema es muy “poguero”(de pogo) por eso hay que saber 
tocarlo bien. El ritmo no es muy dificil, conviene hacer los 
tonos con cejilla, cuando hay una “x” conviene soltar la nota y 
que suene apagada.Aunque cueste un poco hacer E 
(en forma de C:Do en el 4to lugar) suena mejor.

intro:
   Am                  Dm                         E
   [↑ ↓ ↑ ↓ ↑ ↓ ↑ ↓ ↑ ↓ ↑ ↓ ↑ ↓   ↑ ↓ ↑ ↓ ↑ ↓ ↑ ↓ ↓]=Ritmo.
e|--5-x-5-x-5-x-5-x-5-x-5-5-5-5-+-5-x-5-x-5-x-5-x-4-|
B|--5-x-5-x-5-x-5-x-5-x-6-6-6-6-+-5-x-5-x-5-x-5-x-5-|
G|--5-x-5-x-5-x-5-x-5-x-7-7-7-7-+-5-x-5-x-5-x-5-x-4-|
D|--7-x-7-x-7-x-7-x-7-x-7-7-7-7-+-7-x-7-x-7-x-7-x-6-|
A|--7-x-7-x-7-x-7-x-7-x-5-5-5-5-+-7-x-7-x-7-x-7-x-7-|
E|--5-x-5-x-5-x-5-x-5-x-5-5-5-5-+-5-x-5-x-5-x-5-x-4-|
    -__________ x3__-_________-__/

Si cuesta mucho, aganlo así:
Am                  Dm                         E
   [↑ ↓ ↑ ↓ ↑ ↓ ↑ ↓ ↑ ↓ ↑ ↓ ↑ ↓   ↑ ↓ ↑ ↓ ↑ ↓ ↑ ↓ ↓]=Ritmo.
e|--5-x-5-x-5-x-5-x-5-x-5-5-5-5-+-5-x-5-x-5-x-5-x-4-|
B|--5-x-5-x-5-x-5-x-5-x-6-6-6-6-+-5-x-5-x-5-x-5-x-5-|
G|--5-x-5-x-5-x-5-x-5-x-7-7-7-7-+-5-x-5-x-5-x-5-x-4-|
   -__________ x3__-_________-__/

                 Am
Se viene el estallido,

Se viene el estallido,
		 Dm
de mi guitarra.         
               E       Am
de tu gobierno    tambien. (Riff 1)

Riff:                 
e|----------------|      e|----------------|
B|----------------|      b|----------------|
G|-2-0-2-0--------|      G|----------------|
D|---------2-0-2--|  ó   D|--7-5-7-5-------|
A|----------------|      A|----------7-5-7-|
E|----------------|      E|----------------| 

(con el ritmo de la intro)
Am                   Dm  
Y si te viene alguna duda,
              Am     
veni agarrarla que está dura,
                       E                Am
si esto no es una dictadura: que es?, que es?.

Se viene el estallido,
se viene el estallido,
de mi garganta
de tu infierno también 

Se viene el estallido,
se viene el estallido,
de mi garganta
de tu infierno también 


Riff

Y ya no hay ninguna duda,
se esta pudriendo esta basura.
Fisura ya la dictadura
del (¿rey?).

Aca conviene remarcar no mas los tonos, para abajo, o.k.:

Dm                  Am
Volvio la mala, fue corta la primavera
Dm                 Am
cerdos miserables, comiendo lo que nos queda
Dm                             Am
se llevan en la noche, nuestra ultima alegria
Dm                    E
gente poniendo huevo, para salir de la ruina.

(Los tonos son como el est):

Oh oh oh oh oh oh!, oh oh oh oh oh oh oh!
oh oh oh oh oh oh!, oh oh!

Se viene...

En el final queda sonando Am varias veses.

Saludos a todo Cipolletti, y al Cem 65 1° 7°.chau!
“No hay fracaso mas rotundo, que haberse venido al mundo,
pa´ morirse y nada mas”Bersuit
		   
AcordesyTabs.com © 2008 Acordes y Tablaturas para guitarra. Tabs and Chords for guitar. Aviso Legal - Contacto
El uso de este sitio está sujeto a la aceptación de los términos y condiciones (47 usuarios online)