tablaturas, partituras y acordes para guitarra
Busca por banda/artista:
 
y/o título de la canción:
A B C D E F G H I J K L M N O P Q R S T U V W X Y Z 0 1 2 3 4 5 6 7 8 9 / Top 100 tabs
Categorías
Usuarios
usuario:
Darse de alta
password:
Artistas más visitados
Publicidad
TOP acordes y tablaturas de Afi


Estás en: Inicio > Letra A > Acordes y tablaturas de Afi > Morning star
Morning star
de Afi
Puntúa este acorde/tab:      
(0.2/5)
Reportar este acorde/tab
  Añadir a tus favoritos
  Imprimir


Author/Artist: AFI ( a fire inside )
Title: Morning star
Album: The art of drowing
Transcribed by: salvatore spanň
Email: salspan17@virgilio.it

Write me for comments or corrections.


the song is divided in :
-intro play with mutind
-verse 1(play it 2 times with muting)
-chorus play with clean tone and muting on C#5
-verse2 (play like verse 1  2 times whit muting)
-chorus (is like the first chorus but played two times)
-bridge with muting for two times then clean tone
-Drums part

Intro


------------------------------------------------------------------------------
------------------------------------------------------------------------------
-1010101010101010--9-9-9-9-9-9-9-9--7-7-7-7-7-7-7-7---------------------------
-1010101010101010--9-9-9-9-9-9-9-9--7-7-7-7-7-7-7-7--8-8-8-8-8-8-8-8-101010---
--8-8-8-8-8-8-8-8--7-7-7-7-7-7-7-7--5-5-5-5-5-5-5-5--8-8-8-8-8-8-8-8-101010---
-----------------------------------------------------6-6-6-6-6-6-6-6--8-8-8---
                                                                              

------------------------------------------------------------------------------
------------------------------------------------------------------------------
------------------------------------------------------------------------------
-1010101010--1111111111111111-------------------------------------------------
-1010101010--1111111111111111-------------------------------------------------
--8-8-8-8-8---9-9-9-9-9-9-9-9-------------------------------------------------
  verse1                                                                      

------------------------------------------------------------------------------
------------------------------------------------------------------------------
-1010101010101010--9-9-9-9-9-9-9-9--7-7-7-7-7-7-7-7---------------------------
-1010101010101010--9-9-9-9-9-9-9-9--7-7-7-7-7-7-7-7--8-8-8-8-8-8-8-8----------
--8-8-8-8-8-8-8-8--7-7-7-7-7-7-7-7--5-5-5-5-5-5-5-5--8-8-8-8-8-8-8-8----------
-----------------------------------------------------6-6-6-6-6-6-6-6----------
                                                                              

------------------------------------------------------------------------------
------------------------------------------------------------------------------
------------------------------------------------------------------------------
-1010101010101010--1111111111111111-------------------------------------------
-1010101010101010--1111111111111111----2x-----------9-11-11-9-11-11-11-11-----
--8-8-8-8-8-8-8-8---9-9-9-9-9-9-9-9-------9-11-11-9---------------------------
  chorus                                  this above after C5 instead C#5     

------------------------------------------------------------------------------
------------------------------------------------------------------------------
-1010101010101010--9-9-9-9-9-9-9-9--7-7-7-7-7-7-7-7--9-9-9-9-9-9-9-9--7-7-7---
-1010101010101010--9-9-9-9-9-9-9-9--7-7-7-7-7-7-7-7--9-9-9-9-9-9-9-9--7-7-7---
--8-8-8-8-8-8-8-8--7-7-7-7-7-7-7-7--5-5-5-5-5-5-5-5--7-7-7-7-7-7-7-7--5-5-5---
------------------------------------------------------------------------------
                                                                              

------------------------------------------------------------------------------
------------------------------------------------------------------------------
-7-7-7-7-7--9-9-9-9-9-9-9-9--6-6-6-6-6-6--------------------------------------
-7-7-7-7-7--9-9-9-9-9-9-9-9--6-6-6-6-6-6--------------------------------------
-5-5-5-5-5--7-7-7-7-7-7-7-7--4-4-4-4-4-4--------------------------------------
------------------------------------------------------------------------------
  bridge                                                                      

------------------------------------------------------------------------------
------------------------------------------------------------------------------
------------------------------------------------------------------------------
--1111111111111111--8-8-8-8-8-8-8-8--1010101010101010--9-9-9-9-9-9-9-9--------
--1111111111111111--8-8-8-8-8-8-8-8--1010101010101010--9-9-9-9-9-9-9-9--------
---9-9-9-9-9-9-9-9--6-6-6-6-6-6-6-6---8-8-8-8-8-8-8-8--7-7-7-7-7-7-7-7--------
  drums part  (begins with a picked slide from B5)                            

------------------------------------------------------------------------------
------------------------------------------------------------------------------
-1010101010101010--9-9-9-9-9-9-9-9--7-7-7-7-7-7-7-7---------------------------
-1010101010101010--9-9-9-9-9-9-9-9--7-7-7-7-7-7-7-7--x1-----------------------
--8-8-8-8-8-8-8-8--7-7-7-7-7-7-7-7--5-5-5-5-5-5-5-5---------------------------
------------------------------------------------------------------------------
  then play the same of chorus for two times                                  



		   
AcordesyTabs.com © 2008 Acordes y Tablaturas para guitarra. Tabs and Chords for guitar. Aviso Legal - Contacto
El uso de este sitio está sujeto a la aceptación de los términos y condiciones (20 usuarios online)