tablaturas, partituras y acordes para guitarra
Busca por banda/artista:
 
y/o título de la canción:
A B C D E F G H I J K L M N O P Q R S T U V W X Y Z 0 1 2 3 4 5 6 7 8 9 / Top 100 tabs
Categorías
Usuarios
usuario:
Darse de alta
password:
Artistas más visitados
Publicidad
TOP acordes y tablaturas de Pedro Fernandez


Estás en: Inicio > Letra P > Acordes y tablaturas de Pedro Fernandez > Serenata Huasteca
Serenata Huasteca
de Pedro Fernandez
Puntúa este acorde/tab:      
(0.4/5)
Reportar este acorde/tab
  Añadir a tus favoritos
  Imprimir
SERENATA HUASTECA

e---0-5-4-2-0-2-4-5-0----9---9---9---7--7--7--5--4--2--4-------------------
B-2-------------------2--10--10--10--9--9--9--7--5--3--5-------------------
G--------------------------------------------------------------------------
D--------------------------------------------------------------------------
A--------------------------------------------------------------------------
E--------------------------------------------------------------------------

*ESTA PARTE PUEDE SER SUSTITUIDAD

e---4------2------4------2----------------------------
B-5---5--3---3--5---5--3---3--3--5--3-----------------
G--------------------------------------5--4--2--0-----
D-----------------------------------------------------
A-----------------------------------------------------
E-----------------------------------------------------

* POR ESTA OTRA
e-4--7--4--2--5--2--4--5--4--2--5--2--------------------------
B-5--5--5--3--3--3--5--7--5--3--3--3--3--5--3-----------------
G----------------------------------------------5--4--2--0-----
D-------------------------------------------------------------
A-------------------------------------------------------------
E-------------------------------------------------------------

USTEDES DECIDEN COMO LES GUSTA MAS

 A                      E7
Canto al pie de tu ventana
                        A
pa que sepas que te quiero
                       E7
tu a mi no me quieres nada
                    A
pero yo por ti me muero


A7                     D
Dicen que ando muy herrado
A7                     D
que despierte de mis sueños
        A7        D
pero se han equivocado
        E7                A
por que yo he de ser tu dueño


E7 
Que voy ha hacer
                 A
si deveras te quiero
E7
ya te adore
                 A
y olvidarte no puedo

E7
Que voy ha hacer
                 A
si deveras te quiero
E7
ya te adore
                 A
y olvidarte no puedo

                      E7
Dicen que pa conseguirte
                  A
nesesito una fortuna
                    E7
que debo bajar del cielo
                    A
las estrellas y la luna

A7                D
Yo no bajare la luna
A7                   D
ni las estrellas tampoco
         E7           A
y aunque no tengo fortuna
E7                     A
me querras poquito a poco


E7
Que voy ha hacer
                 A
si deveras te quiero
E7
ya te adore
                  A
y olvidarte no puedo

E7             
Que voy ha hacer
                  A
si deveras te quiero
E7 
ya te adore
                  A
y olvidarte no puedo

A                        E7
Yo se que hay muchas mujeres
                         A
y que sobra quien me quiera
                    E7
pero ninguna me importa
                     A
solo pienso en ti morena


A7                    D
Mi corazon te ha escogido
A7                   D
y llorar no quiero verlo
          E7             A
ya el pobre mucho ha sufrido
         E7           A
ahora tienes que quererlo


E7
Que voy ha hacer
                  A
si deveras te quiero
E7
ya te adore
                 A
y olvidarte no puedo

E7
Que voy ha hacer
                 A
si deveras te quiero
E7
ya te adore
                  A
y olvidarte no puedo

tambien se la dedico a mi queridisima Rosa Kitty jeje
		   
AcordesyTabs.com © 2008 Acordes y Tablaturas para guitarra. Tabs and Chords for guitar. Aviso Legal - Contacto
El uso de este sitio está sujeto a la aceptación de los términos y condiciones (40 usuarios online)