tablaturas, partituras y acordes para guitarra
Busca por banda/artista:
 
y/o título de la canción:
A B C D E F G H I J K L M N O P Q R S T U V W X Y Z 0 1 2 3 4 5 6 7 8 9 / Top 100 tabs
Categorías
Usuarios
usuario:
Darse de alta
password:
Artistas más visitados
Publicidad
TOP acordes y tablaturas de Foo fighters


New way home
de Foo fighters
Puntúa este acorde/tab:      
(0.3/5)
Reportar este acorde/tab
  Añadir a tus favoritos
  Imprimir


From: "AARON THOMAS" <monkeywrencher1@hotmail.com>
Subject: f/foo_fighters/new_way_home.crd
Date: Thu, 07 May 1998 14:08:15 PDT

SONG:NEW WAY HOME
ALBUM:THE COLOUR AND THE SHAPE
ARTIST:FOO FIGHTERS
TABBED BY:AARON THOMAS (MONKEYWRENCHER1@HOTMAIL.COM/)
this song is okay, it also easy. please email any corrections.if anyone 
wants to know how to play this in drop D just e-mail me.

INTRO:
E----------------------
B----------------------
G----------------------
D-7-7-7-7-7-47911-12
A-7-7-7-7-7------------
E-5-5-5-5-5-2579--10

VERSE:
E----------------------------------------------
B----------------------------------------------
G-------------------------------7-7-7-7-5-5-5-5
D-7-7-7-7-7-4-4-4-4-4-5-5-5-5-5-7-7-7-7-5-5-5-5
A-7-7-7-7-7-4-4-4-4-4-5-5-5-5-5-5-5-5-5-3-3-3-3
E-5-5-5-5-5-2-2-2-2-2-3-3-3-3-3----------------

CHORUS:
E----------------------------------------------
B----------------------------------------------
G-----------10-10-10-10-10-7-7-7-7-7-----------
D-7-7-7-7-7-10-10-10-10-10-7-7-7-7-7-5-5-5-5-5-
A-7-7-7-7-7-8--8--8--8--8--5-5-5-5-5-5-5-5-5-5-
E-5-5-5-5-5--------------------------3-3-3-3-3-
*DO THE SAME THING JUST LEAVE OUT THE D CHORD, THEN PLAY THE ENTIRE 
CHORUS*

BRIDGE:
E------------------------------------------------
B------------------------------------------------
G-----9-9-9-9-9-9-----9-9-9-9-9-9---------7-7-7-7
D-7-7-9-9-9-9-9-9-7-7-9-9-9-9-9-9-4-4-4-4-7-7-7-7
A-7-7-7-7-7-7-7-7-7-7-7-7-7-7-7-7-4-4-4-4-5-5-5-5
E-5-5-------------5-5-------------2-2-2-2--------
*THROW IN A G CHORD INSTEAD OF A D CHORD AT THE END OF BRIDGE*

LYRICS:
HAVE YOU FOUND YOUR WAY AROUND THE DOWN AND OUT I KNOW IT MUST BE LONG 
SO LONG I’M STILL TRYING TO KEEP THIS TIME FROM RUNNING OUT HEAD DOWN 
ALWAYS MOVING ON AND ON AND 0N AND ON I NEVER HEARD THIS WARNING ANOTHER 
EARLY MORNING WAKES ME BREAKS ME INTO IF YOU COULD MANAGE ME I’LL TRY TO 
MANAGE YOU BUT LATELY IT’S ALL I EVER DO I FELT LIKE THIS ON MY WAY HOME 
I’M NOT SCARED I PASS BOATS AND THE KING DOME I’M NOT SCARED. I’LL NEVER 
TELL YOU THESE SECRETS I’M HOLDING I KNOW THESE THINGS MUST BORE YOU I 
CAN’T FIND ANOTHER WAY I’LL NEVER TELL YOU THE SECRETS I’M HOLDING I 
LOVE THIS LEASH THAT HOLDS ME.


		   
AcordesyTabs.com © 2008 Acordes y Tablaturas para guitarra. Tabs and Chords for guitar. Aviso Legal - Contacto
El uso de este sitio está sujeto a la aceptación de los términos y condiciones (13 usuarios online)