tablaturas, partituras y acordes para guitarra
Busca por banda/artista:
 
y/o título de la canción:
A B C D E F G H I J K L M N O P Q R S T U V W X Y Z 0 1 2 3 4 5 6 7 8 9 / Top 100 tabs
Categorías
Usuarios
usuario:
Darse de alta
password:
Artistas más visitados
Publicidad
TOP acordes y tablaturas de Pablo Milanés


Estás en: Inicio > Letra P > Acordes y tablaturas de Pablo Milanés > Si ella me faltara alguna vez
Si ella me faltara alguna vez
de Pablo Milanés
Puntúa este acorde/tab:      
(0.2/5)
Reportar este acorde/tab
  Añadir a tus favoritos
  Imprimir
INTRO
    D
e|----2--------0-----------||
B|---3--3----3---3---------||
G|--2--2-2--2-2-2-2--------||
D|-0-------0---------------||
A|-------------------------||
E|-------------------------||

   D	          G           A
   Si ella me faltara alguna vez
e|-----0--------------------------0-----||
B|---3---3------------3---------2---2---||
G|--2-2-2-2----------0---------2-2-2-2--||
D|-0------------------------------------||
A|-------------------------2--0---------||
E|----------------3-2-------------------||

   D            G          A
   Nadie me podría acompañar
e|----0-----------------------0-----||
B|---3-3------------3--------2--2---||
G|--2---2----------0--------2--2-2--||
D|-0--------------------------------||
A|----------------------2--0--------||
E|--------------3-2-----------------||

   D	      Bm        F#m
   Nadie ocuparía ese lugar
e|-----0---------2----------2----||
B|---3---3------3-3--------2-2---||
G|--2-2-2-2----4---4------2---2--||
D|-0-----------------------------||
A|------------2------------------||
E|----------------------2--------||

	   G	           D
Que descubro en cada amanecer
e|------------3----------------2---||
B|-----------3----------------3----||
G|----------0----------------2-----||
D|-------------------------0-------||
A|---------------------------------||
E|---------3-----------------------||

	  G           A
Si me faltara alguna vez		
e|-----------------------0-----||
B|----------3-----------2--2---||
G|---------0-----------2--2-2--||
D|-----------------------------||
A|-----------------2--0--------||
E|--------3--------------------||

Básicamente así es toda la canción. Solo hay pequeñitos 
cambios y arreglos en los punteos. Les aconsejo que la 
escuchen para saber dónde van.

D...
Si ella me dejara de querer
Cuando la contemplo al despertar
Siento la pureza que me da
Nunca la podré corresponder
	        ...A
Si me dejara de querer

Si ella se olvidara de cantar
Ese hermoso mundo que me da
Como volvería a predicar
Si fue su palabra mi verdad
Si se olvidara de cantar

Si ella no inundara esta ciudad
Todo cambiaría de color
Gozaría de otra claridad
Cuando miro y pienso con dolor
Si no inundara esta ciudad

Si ella me faltara alguna vez
Si ella me dejara de querer
Si ella se olvidara de cantar
Si ella no inundara esta ciudad
Yo escribiría esta canción.

FINAL
    D    G     A         D
e|-----------------0-------3---------2||
B|---3-----3-----2---2------3-------3-||
G|--2-2---0-0---2-2-2-2---2--2-----2--||
D|-0---------------------0--------0---||
A|-------------0----------------------||
E|-------3----------------------------||

farra@www.com, por si quieren saber cómo 
le hice pa'sacarla perfecta.
		   
AcordesyTabs.com © 2008 Acordes y Tablaturas para guitarra. Tabs and Chords for guitar. Aviso Legal - Contacto
El uso de este sitio está sujeto a la aceptación de los términos y condiciones (24 usuarios online)