tablaturas, partituras y acordes para guitarra
Busca por banda/artista:
 
y/o título de la canción:
A B C D E F G H I J K L M N O P Q R S T U V W X Y Z 0 1 2 3 4 5 6 7 8 9 / Top 100 tabs
Categorías
Usuarios
usuario:
Darse de alta
password:
Artistas más visitados
Publicidad
TOP acordes y tablaturas de Lynyrd skynyrd


Estás en: Inicio > Letra L > Acordes y tablaturas de Lynyrd skynyrd > Sweet home alabama accurate
Sweet home alabama accurate
de Lynyrd skynyrd
Puntúa este acorde/tab:      
(0.7/5)
Reportar este acorde/tab
  Añadir a tus favoritos
  Imprimir

Posted By JDWBMX@AOL.com
E-mail me if there are any corrections.



Intro
e----------------------------------------------------------------
b--------3--------------3--------------3-------------------------
g-----------2--------------0-----------0-------------------------
d--0--0--------0--------------0------------------0b2p0-----2p0---
a-----------------3--3-----------------------0b2-------2p0-------
e--------------------------------3--3----------------------------


e----------------------------------------------------------------
b--------3--------------3--------------3-------------------------
g-----------2--------------0-----------0-----0-0b2p0-0b4p0-0-5---
d--0--0--------0--------------0----------------------------------
a-----------------3--3-------------------------------------------
e--------------------------------3--3----------------------------




Riff 1
e------------------------------------------
b--------3-----------3-----------3---------
g--------2-----------0-----------0---------
d--0--0-----0-----------0------------------
a--------------3--3------------------------
e--------------------------3--3------------


Riff 1a                    Riff 1b                   Riff 1c
e-----------------------   e---------------------   e------------
b-----------------------   b---------3--3--------   b--------3---
g--------------2p0------   g---------0--0--------   g--------0---
d------0b2p0------------   d------0--------------   d------------
a--0b2-------2----------   a--0b2----------------   a------------
e-----------------------   e---------------------   e--3--3------



Riff 2
e--------------------------------------------------
b--------------------------------------------------
g----------7-7------------5---------------0--------
d----------7-7------------5---------------0--------
a-7--8--9-------9---5--7-----7---0--1--2-----------
e--------------------------------------------------



Riff 3
e-------------------------------------------------------
b-------------------------------------------------------
g--2--2--4--2---0--0--2--0------------------------------
d--0--0--0--0----------------0--0---2--------0b2p0--5---
a---------------3--3--3--3---------------0b2--------3---
e----------------------------3--3---3-------------------


e-----------------------------------------------------------------
b-----------------------------------------------------------------
g--2--2--4--2---0--0--2--0----------------------------------------
d--0--0--0--0----------------0--0---2-------0----0----0----0----0-
a---------------3--3--3--3---------------0b2--0b2--0b2--0b2--0b2--
e----------------------------3--3---3-----------------------------


		   
AcordesyTabs.com © 2008 Acordes y Tablaturas para guitarra. Tabs and Chords for guitar. Aviso Legal - Contacto
El uso de este sitio está sujeto a la aceptación de los términos y condiciones (72 usuarios online)