tablaturas, partituras y acordes para guitarra
Busca por banda/artista:
 
y/o título de la canción:
A B C D E F G H I J K L M N O P Q R S T U V W X Y Z 0 1 2 3 4 5 6 7 8 9 / Top 100 tabs
Categorías
Usuarios
usuario:
Darse de alta
password:
Artistas más visitados
Publicidad
TOP acordes y tablaturas de Green day


Chump
de Green day
Puntúa este acorde/tab:      
(0.9/5)
Reportar este acorde/tab
  Añadir a tus favoritos
  Imprimir

Song: Chump
Artist: Green Day
Album: Dookie
Tabbed by: Darin Oulaghan (that_guitarist@hotmail.com)
questions and comments welcome!

Intro
|-------------------------0--0-------|
|--4-4-2------------------0--0-------|
|--4-4-2------1-----------1--1--4-4--|
|--4-4-2------2---2-2-----2--2--4-4--|
|--2-2-0------2---2-2-----2--2--2-2--|
|--------2p0--0---0-0-----0--0-------|

Verse

1. I don't know you but I think I hate you, you're the reason for my misery.
2. Strange how you've become my biggest enemy, and I've never even seen your face.
3. You're the cloud hanging out over my head, hail comes crashing down, welting my face,
4. Magic man,egocentric plastic man, yet still got one over on me.

|-------------------------0--0------------------------------0--0-----|
|--4-4-2------------------0--0-------4-4-2------------------0--0-----|
|--4-4-2------1-----------1--1--4----4-4-2------1-----------1--1--4--|
|--4-4-2------2---2-2-----2--2--4----4-4-2------2---2-2-----2--2--4--|
|--2-2-0------2---2-2-----2--2--2----2-2-0------2---2-2-----2--2--2--|
|--------2p0--0---0-0-----0--0-------------2p0--0---0-0-----0--0-----|


|-------------------------0--0-------2-2-2-2-2-2-2-2-2-2-2---|
|--4-4-2------------------0--0-------2-2-2-2-2-2-2-2-2-2-2---|
|--4-4-2------1-----------1--1--4----3-3-3-3-3-3-3-3-3-3-3---|
|--4-4-2------1---2-2-----1--1--4----4-4-4-4-4-4-4-4-4-4-4---|
|--2-2-0------2---2-2-----2--2--2----4-4-4-4-4-4-4-4-4-4-4---|
|--------2p0--0---0-0-----0--0-------2-2-2-2-2-2-2-2-2-2-2---|

Chorus
1. Well maybe it's just jealousy
2. Mixing up with a violent mind
3. A circumstance that doesn't make much sense
4. Or maybe I'm just blind

|--0-0--0-0-0---------------|
|--2-2--0-0-0--4-4-4-4-4-4--|
|--2-2--1-1-1--4-4-4-4-4-4--|
|--2-2--2-2-2--4-4-4-4-4-4--|
|--0-0--2-2-2--2-2-2-2-2-2--|
|-------0-0-0---------------|


Bass Solo

Let this ring for a while...strum every once in awhile

|------------|
|------------|
|--11-11-11--|
|--11-11-11--|
|--9--9--9---|
|------------|

Then play this 2xs

|-------------------|
|-------------------|
|--9-9-9--11-11-11--|
|--9-9-9--11-11-11--|
|--7-7-7--9--9--9---|
|-------------------|

Outro

|------------------------------2-2-2-2-2-2-2-2-2-2-2-2-2--|
|------------------------------2-2-2-2-2-2-2-2-2-2-2-2-2--|
|--3-3-3--1-1-1--3-3-3--1-1-1--3-3-3-3-3-3-3-3-3-3-3-3-3--|
|--4-4-4--2-2-2--4-4-4--2-2-2--4-4-4-4-4-4-4-4-4-4-4-4-4--|
|--4-4-4--2-2-2--4-4-4--2-2-2--4-4-4-4-4-4-4-4-4-4-4-4-4--|
|--2-2-2--0-0-0--2-2-2--0-0-0--2-2-2-2-2-2-2-2-2-2-2-2-2--|

|--2-2-2-2-2-2-2-2-2-2-2-2-2--|
|--2-2-2-2-2-2-2-2-2-2-2-2-2--|
|--3-3-3-3-3-3-3-3-3-3-3-3-3--|
|--4-4-4-4-4-4-4-4-4-4-4-4-4--|
|--4-4-4-4-4-4-4-4-4-4-4-4-4--|
|--2-2-2-2-2-2-2-2-2-2-2-2-2--|

Play this part 11x
|-----------------------------------------------|
|--12-12-12-12-12-12-12-12-12-12-12-12-12-12/5--|
|-----------------------------------------------|
|-----------------------------------------------|
|-----------------------------------------------|
|-----------------------------------------------|

|--2-2-2-2-2-2-2-2-2-2-2-2-2-2-2-2-2-2-2-2-2-2-2--------------|
|--2-2-2-2-2-2-2-2-2-2-2-2-2-2-2-2-2-2-2-2-2-2-2--------------|
|--3-3-3-3-3-3-3-3-3-3-3-3-3-3-3-3-3-3-3-3-3-3-3--------------|
|--4-4-4-4-4-4-4-4-4-4-4-4-4-4-4-4-4-4-4-4-4-4-4---4-4-4-4-4--|
|--4-4-4-4-4-4-4-4-4-4-4-4-4-4-4-4-4-4-4-4-4-4-4---4-4-4-4-4--|
|--2-2-2-2-2-2-2-2-2-2-2-2-2-2-2-2-2-2-2-2-2-2-2---2-2-2-2-2--|


Intro X 2
Verse X w/ lyrics 1,2
Chorus X 4 w/ lyrics 1,2,3,4
Intro X 2
Verse X 2 w/ lyrics 3,4
Chorus X 4 w/ lyrics 1,2,3,4
Intro X 2
Bass Solo X 1
Outro X 1


		   
AcordesyTabs.com © 2008 Acordes y Tablaturas para guitarra. Tabs and Chords for guitar. Aviso Legal - Contacto
El uso de este sitio está sujeto a la aceptación de los términos y condiciones (28 usuarios online)