tablaturas, partituras y acordes para guitarra
Busca por banda/artista:
 
y/o título de la canción:
A B C D E F G H I J K L M N O P Q R S T U V W X Y Z 0 1 2 3 4 5 6 7 8 9 / Top 100 tabs
Categorías
Usuarios
usuario:
Darse de alta
password:
Artistas más visitados
Publicidad
TOP acordes y tablaturas de José José


Estás en: Inicio > Letra J > Acordes y tablaturas de José José > Si me dejas ahora
Si me dejas ahora
de José José
Puntúa este acorde/tab:      
(0.5/5)
Reportar este acorde/tab
  Añadir a tus favoritos
  Imprimir
Un gran exito del señor Jose Jose. Le hice algunos arreglos para que 
se oyera mejor, pero eso si, dejandola lo mas fiel posible a la
version original. Aqui esta:

Intro:

1. ----------------------------------------------------------------------------------
2. ----------------------------------------------------------------------0-----0-----
3. ---1-2-1---------2-2-1-2-4-------------------1-2-1--------2-2-1-2-4-4---7-7---5---
4. -4-------4-2-0--------------4-2-1---1---4-4--------4-2-0--------------------------
5. ----------------------------------2-----------------------------------------------
6. ----------------------------------------------------------------------------------


F#m          Bm
Si me dejas ahora
    E7               A
no sere capaz de sobrevivir
F#m                  Bm
me encadenaste a tu falda
      E7                     A
y enseñaste a mi alma a depender de ti.

           Bm         C#7
Ataste tu piel a mi piel
                F#m
y tu boca a mi boca
             Bm
clavaste tu mente en la mia
                     F#m
como la espada en la roca
             E
y ahora me dejas
                            F#m
como si fuera yo cualquier cosa.

F#m           Bm
Si me dejas ahora
    E                A
no sere capaz de volver a sentir
F#m             Bm
me alejaste de todo
   E7                 A
y ahora dejas que me hunda en el lodo,
           G       C#7
me cuesta tanto creer
                 F#m
que no tengas corazon
                       Bm        C#7
que yo he sido en tu cadena de amor
               F#m
tan solo un eslabon
                       E7
y en tu escalera un peldaño

al que no te importa pisar
            A 
ni hacerle daño.

CORO:
        D                          E7
Estoy preso entre las redes de un poema,
A    E7                  D             E7
eres tu quien me puede ayudar o me condena
D                     E7   
eres lo mejor de mi pasado
A    E7                D       E7
eres tu quien aun me tiene enamorado.

F#m   E    D     E7
   Eres tu, solo tu
  A   E  D       E7
   eres tu, solo tu.


F#m           Bm
Si me dejas ahora
      E          A
mi espiritu se ira tras de ti
                 Bm
cabalgara dia y noche
    E              A
sintiendose soñador y quijote.

           Bm         C#7
Ataste tu piel a mi piel
                F#m
y tu boca a mi boca
             Bm
clavaste tu mente en la mia
                     F#m
como la espada en la roca
             E
y ahora me dejas
                            F#m
como si fuera yo cualquier cosa.



        D                          E7
Estoy preso entre las redes de un poema,
A    E7                  D             E7
eres tu quien me puede ayudar o me condena
D                     E7   
eres lo mejor de mi pasado
A    E7                D       E7
eres tu quien aun me tiene enamorado.

F#m   E    D     E7
   Eres tu, solo tu
  A   E  D       E7
   eres tu, solo tu.


Solo Armonica:

4 3 4 3 4 3(3)4 (4)* 4
3(3) 3 2 3(3) 4 3 2
4 3 2 3(3)* 4(4)* 4

o tambien se puede tocar en la guitarra asi:

1. -9-7-9-7-9---7-9-12-14-12---9-12-9-7-5-7---12-14-12b------
2. ----------------------------------------------------------
3. ----------------------------------------------------------
4. ----------------------------------------------------------
5. ----------------------------------------------------------
6. ----------------------------------------------------------

        D                          E7
Estoy preso entre las redes de un poema,
A    E7                  D             E7
eres tu quien me puede ayudar o me condena

F#m   E    D     E7
   Eres tu, solo tu
  A   E  D       E7
   eres tu, solo tu.

1. -15-15-12----17b---15-12-------------
2. ----------15-------------15-1210----
3. -------------------------------------
4. -------------------------------------
5. -------------------------------------
6. -------------------------------------

F#m   E    D     E7
   Eres tu, solo tu
  A   E  D       E7
   eres tu, solo tu.

1. -------------------------------------9-9-9-9-9------------------9-9-9-9-9-------------
2. -10-10-7-5--10-10-7-5--10-7-5-10-7-5-----------10-10-7-5-10-7-5-----------10-7-5------
3. --------------------------------------------------------------------------------------
4. --------------------------------------------------------------------------------------
5. --------------------------------------------------------------------------------------
6. --------------------------------------------------------------------------------------

F#m   E    D     E7
   Eres tu, solo tu
  A   E  D       E7
   eres tu, solo tu.

1. -------------------------------------9-9-9-9-9------------------9-9-9-9-9-------------
2. -10-10-7-5--10-10-7-5--10-7-5-10-7-5-----------10-10-7-5-10-7-5-----------10-7-5------
3. --------------------------------------------------------------------------------------
4. --------------------------------------------------------------------------------------
5. --------------------------------------------------------------------------------------
6. --------------------------------------------------------------------------------------

F#m   E    D     E7
   Eres tu, solo tu
  A   E  D       E7
   eres tu, solo tu. (Fade out)


Bueno, ahi estuvo la cancion, dedicada especialmente para la mujer
que me ha cautivado, ella sabe quien es, tambien para mis padres
hermanos, cuates y todos los que me han apoyado en lo de la 
guitarra. Paz!!!
		   
AcordesyTabs.com © 2008 Acordes y Tablaturas para guitarra. Tabs and Chords for guitar. Aviso Legal - Contacto
El uso de este sitio está sujeto a la aceptación de los términos y condiciones (38 usuarios online)