tablaturas, partituras y acordes para guitarra
Busca por banda/artista:
 
y/o título de la canción:
A B C D E F G H I J K L M N O P Q R S T U V W X Y Z 0 1 2 3 4 5 6 7 8 9 / Top 100 tabs
Categorías
Usuarios
usuario:
Darse de alta
password:
Artistas más visitados
Publicidad
TOP acordes y tablaturas de Mago De Oz


Si te vas
de Mago De Oz
Puntúa este acorde/tab:      
(0.4/5)
Reportar este acorde/tab
  Añadir a tus favoritos
  Imprimir
    C      Dm     F      Am     A#      ¿
E|-----  -----  -----  -----  -----   -----  Estos son los acordes con
B|-----  -----  -----  -----  -----   -----  distorsion que se utilizan
G|--5--  --7--  -----  -----  -----   -----  en la tab. Los acusticos
D|--5--  --7--  --3--  --7--  --8--   --2--  ya se los deben de saber.
A|--3--  --5--  --3--  --7--  --8--   --3--
E|-----  -----  --1--  --5--  --6--   --0--  W E B O N E S !!!!

Intro
E|------------------------------------------------------------------------------
B|--10-------------8--------------------------------------8-10-------------8----
G|-----10------------9-9h10-7--------7--------7-10-9~--10------10------------9--
D|--------10~---10------------7~---7---10-8~----------------------10~---10------
A|------------------------------------------------------------------------------
E|------------------------------------------------------------------------------
    F         C         Dm       Am       A#       C        F         C
----------------------------------------------------|
-------------------------------------8-10~----8~----|
---9h10-7--------7-------7-10-9~--10----------------|
----------7~---7---10-8~----------------------------|
----------------------------------------------------|
----------------------------------------------------|
    Dm      Am        A#      C         F     C

F            C
Vengo de tanto perder
    Dm         C
Que tuve miedo a tener
F            C
Algo por lo que abrir
 Dm                  C
Mi alma y ponerla a tus pies

F           A#    C
Siento del viento celos,
              Dm
Por acariciar tu cara cada mañana
    A#      Dm        C
Y quiero pegarme con él

       F
Y a pesar de todo
       C
Que difícil es
Dm                        Am  G
Que no me duela estar sin ti
      F
Yo seré tu aire
      C              Dm            C
Tú serás la piel que cubra mi soledad
                       F
¡Quiero estar junto a ti!

Violin Riff 1:   (1:24)
E|--------------------------------------------------|
B|------13---------13--------11--10-8~----10p8------|
G|--10------10--9------9--7--------------------10~--|
D|--------------------------------------------------|
A|--------------------------------------------------|
E|--------------------------------------------------|
     F          C         Dm        C          F

  F          C           Dm
Quiero dejar de morir en vida,
         C
Tu me haces vivir
 F           C
Todo con lo que soñé
   Dm           C
Y nunca pude tener

    F       A#         C
Y quiero dormir en tus ojos

Y al despertar
Dm
Beber de tu boca
     A#    Dm       C
Todavía de ti tengo sed

(Entra distorsion)

       F
Y a pesar de todo
       C
Que difícil es
Dm                        Am  G
Que no me duela estar sin ti
      F
Yo seré tu aire
      C              Dm            C
Tú serás la piel que cubra mi soledad
                       F
¡Quiero estar junto a ti!

Violin Riff 2:   (2:26)
E|-----------------------------------------------------------------|
B|--------13----15---13-10---10-8--------15-13--11--10--8----10p8--|
G|--10-----------------------------10------------------------------|
D|-----------------------------------------------------------------|
A|-----------------------------------------------------------------|
E|-----------------------------------------------------------------|
    F      C    Dm      Am   Am G  F        A#          C

- Violin Riff 1 - 1x

Violin y Flauta Riff 1:
E|-----------------------------------------------------------------------------------
B|------13---------13--------11--10-13---15-17-18----20p18p17/15h17~---15-13----13~--
G|--10------10--9------9--7--------------------------------------------------14------
D|-----------------------------------------------------------------------------------
A|-----------------------------------------------------------------------------------
E|-----------------------------------------------------------------------------------
     F          C         Dm        C          F                 Dm    A#        C
----------------------------|
---/15--13------------------|
-----------/14--12----------|
--------------------15--14--|
----------------------------|
----------------------------|
    Dm          A#
|-----------------------------------------------------------------------------------|
|             ¤ø,¸¸,ø¤º°`°º¤¸ - Solo completo - ¤º°`°º¤ø,¸¸,ø¤º°`°º¤                |
|-----------------------------------------------------------------------------------|
    (3:10)
E|--------------------------------------------------------------------------10-12--
B|-----------------------------------------------------------------------10--------
G|-----------------------------------12-14~--15--17-17p15p14/12~------10-----------
D|-----------------12-14----12-14-15-------------------------------12--------------
A|--------12-13-15-------15--------------------------------------------------------
E|--13-15--------------------------------------------------------------------------
P.M...................................
    F                  ¿               F                     C
---12b13b12~---12h13p12p10-----------------15b17--15~--20-20p17----------17~---
----------------------------------------------------------------18----18--------
---------------------------12p10p9h10/12~--------------------------17-----------
--------------------------------------------------------------------------------
--------------------------------------------------------------------------------
--------------------------------------------------------------------------------
      Dm                              Am     Am   G    F                      C



---15p12----------12~---17p13----------13-15-15b17~--17h18p17p13--------------------
---------13----13-------------15----15---------------------------13------------/13--
------------12-------------------14---------------------------------15-14----14-----
--------------------------------------------------------------------------15--------
------------------------------------------------------------------------------------
------------------------------------------------------------------------------------
                         Dm                          C
---13----13----13----15b17~------|
------13----13----13--------------|
----------------------------------|
----------------------------------|
----------------------------------|
----------------------------------|
   C  C  C  C  C  C   F

       F
Y a pesar de todo
       C
Que difícil es
Dm                        Am  G
Que no me duela estar sin ti
      F
Yo seré tu aire
      C              Dm            C
Tú serás la piel que cubra mi soledad

F          C
Si te vas
            Dm        Am
Mi amor, si tu te vas
        A#         C
Me volveré a encerrar en vida
  F      C
Y no saldré
  F           C
¿Donde estas?
          Dm          Am
Mi vida ¿dónde estás?
         A#        C          F   C
Pues necesito tu amor para vivir

- Intro - 2x

Outro:   (4:32)
E|--17-------------15-----------------------------------------------15-17~----15---
B|-----18-------------17-17h18-17----------15---------15-18-17~--18----------------
G|--------17~---17----------------14~---14----17-15~-------------------------------
D|---------------------------------------------------------------------------------
A|---------------------------------------------------------------------------------
E|---------------------------------------------------------------------------------
Son los mismos acordes que en el Intro

- FIN

(¤«^§Ên§Êi^»¤)
		   
AcordesyTabs.com © 2008 Acordes y Tablaturas para guitarra. Tabs and Chords for guitar. Aviso Legal - Contacto
El uso de este sitio está sujeto a la aceptación de los términos y condiciones (18 usuarios online)