tablaturas, partituras y acordes para guitarra
Busca por banda/artista:
 
y/o título de la canción:
A B C D E F G H I J K L M N O P Q R S T U V W X Y Z 0 1 2 3 4 5 6 7 8 9 / Top 100 tabs
Categorías
Usuarios
usuario:
Darse de alta
password:
Artistas más visitados
Publicidad
TOP acordes y tablaturas de Enanitos Verdes


Mal de amores
de Enanitos Verdes
Puntúa este acorde/tab:      
(0.4/5)
Reportar este acorde/tab
  Añadir a tus favoritos
  Imprimir
Bueno, espero que les guste el tab. Me entretuve un rato pero esta muy completo.



      F#m              E                Bm              D       E
e|-2----------------4----------------7---------------2-------4-------
B|-2-------------------------------------------------3-------5-------
G|-2---------------/4----------------7---------------2-------4-------
D|-4-----------------------------------------------------------------
A|-4-----------------------------------------------------------------
E|-2-----------------------------------------------------------------



Intro - En esta seccion puse las 2 guitarras, y mas o menos coinciden en
cuanto a tiempo. Gtr 1 no esta 100% exacta porque el mp3 que use estaba medio
corrienton. Esta parte se repite varias veces en la cancion pero con pequeñas
modificaciones

           F#m             E               Bm              D       E

e|-Gtr-1-|-----5-5-----5-5---------------------7-7-----7-7-----------------
B|-------|-757-7-7--57-7-7-----9-9-----9-9-----7-7-----7-7-----7-------9---
G|-------|---------6-------979-9-9-----9-9-7-------7---------7---7---9---9-
D|-------|--------------------------789-------------------/7------/9-------
A|-------|-------------------------7---------------------------------------
E|-------|-----------------------------------------------------------------
 |
 |
e|-------|-----------------------------------------------------------------
B|-23232-|-----------23232-----------23232------3-5-7----------------------
G|-------|---------------------------------4----4-6-7----------------------
D|-------|-4---------------2-----------------------------------------------
A|-------|-----------------------------------------------------------------
E|-Gtr-2-|-----------------------------------------------------------------


           F#m             E                  Bm              D      E
e|-Gtr-1-|-----5-------5--------------------------777-----777--------------
B|-------|--57---7--57---7-----9-9--9h10-10-9-----777-----777----7-----9---
G|-------|-6-------6-------/9--9-9--9----9--9-7-------7------------7-----9-
D|-------|-------------------------9--------------------------/7----/9-----
A|-------|-----------------------------------------------------------------
E|-------|-----------------------------------------------------------------
 |
 |
e|-------|-----------------------------------------------------------------
B|-23232-|-----------23232-----------23232------3-5-7----------------------
G|-------|---------------------------------4----4-6-7----------------------
D|-------|-4---------------2-----------------------------------------------
A|-------|-----------------------------------------------------------------
E|-Gtr-2-|-----------------------------------------------------------------


Versos - No mas juega con los acordes


   F#m        E          Bm         D
e|------5---------------------7----------5------
B|----7----7-------9--------7----7-----7----7---
G|-6-------------9----9--7----------7-----------
D|------------9---------------------------------  x2
A|----------------------------------------------
E|----------------------------------------------


   A          E          Bm         D          F#m
e|------5---------------------7----------5----------5----
B|----5----5-------9--------7----7-----7----7-----7----7-
G|-6-------------9----9--7----------7----------6---------
D|------------9------------------------------------------
A|-------------------------------------------------------
E|-------------------------------------------------------
 
   E          Bm         D
e|-----------------7----------5-----
B|------9--------7----7-----7----7--
G|----9----9--7----------7----------
D|-9--------------------------------
A|----------------------------------
E|----------------------------------

 (1:04)
e|--------------------------------------------------------------------------
B|--------------------------------------------------------------------------
G|-2-1-2--------2-1-2--------2-1-2------------------------------------------
D|-------0-------------------------0-------0--------------------0-0-0-4-2-0-
A|--------------------4---------------4--2----4--2--0-0-0-2-2-2-------------
E|--------------------------------------------------------------------------

e|---------------------------
B|---------------------------
G|---------------------------
D|-------------0-0-0-3-3-3-4-
A|-4-4-4-2-2-2---------------
E|---------------------------

(1:25)
e|------7--9--7h9p7---------- En esta parte tocan 2 guitarras
B|-9-10-9-10--9h10p9-10-9----
G|-9-11--------------11-9-11-<Gtr 1
D|------------------------12-<Gtr 2
A|---------------------------
E|---------------------------

Guitar Solo - Durante el solo otra guitarra improvisa sobre los acordes
e|------------------------------5-4-5-4---------------4-5-4------------
B|-2-3-2-3-2----------------5-7---------7---------5-7--------7-5--7----
G|-------------------/6---6--------------6------6-------------------6-
D|-----------4----------4----------------------------------------------
A|---------------------------------------------------------------------
E|---------------------------------------------------------------------

e|-----------------------------------------------------------------------
B|-3p2p0-3p2p0-------------10p9---------7---9---10--9---7---9---10---9---
G|-------------2-1-2-4----------11--9^r---9---9---9---9---9---9----9-----
D|---------------------2-------------------------------------------------
A|-----------------------------------------------------------------------
E|-----------------------------------------------------------------------

e|-----------------------------------------------------------------------
B|-----10----12----14----12----10----12----14----12-----12----14----17---
G|-/11----11----11----11----11----11----11----11----/14----14----14----14
D|-----------------------------------------------------------------------
A|-----------------------------------------------------------------------
E|-----------------------------------------------------------------------

e|----------------------------------------------------------------------
B|-14----12----14----17----14----17----19----17----17----19----21----19-
G|----14----14----14---/16----16----16----16---/18----18----18----18----
D|----------------------------------------------------------------------
A|----------------------------------------------------------------------
E|----------------------------------------------------------------------

(2:57)
e|---------------------------------------
B|---------------------------------------
G|---------------------------------------
D|------9-11-12-9----9^10-11-9-----------
A|-9-12-----------12-----------12-9----9-
E|----------------------------------12---


(3:05)
e|-5---------/9-----7--------97--
B|-5--------/10-----9-------------
G|-6----------------------4/6------
D|---------------------------------
A|---------------------------------
E|---------------------------------

(3:12)
e|--------------------------------------
B|--------------------------------------
G|-----------9/11~----------------------
D|-9-11-12-9--------------9-11-12-9/11~-
A|---------------------12---------------
E|--------------------------------------


Esta ultima parte se toca durante los coros, pero se toca un poco
diferente cada vez 
(1:27) (2:40)
e|-----------------------------------------------------------------
B|---------------9-9-----------------------7-7---------------------
G|---------------9-9------------9----------7-7----9p7p6---7p6------
D|-------------9--------------9---------9-------9-------9-----9p7--
A|-11----10-11----------10-11-----11-------------------------------
E|-----------------------------------------------------------------

e|----------------------------------
B|------10------10--------9-----9---
G|---------9-------9--------9-----9-
D|-9/11------11------11p9-----9-----
A|----------------------------------
E|----------------------------------

Usando este tab y los otros tabs y acordes presentes en el archivo se puede
sacar una buena version de esta cancion.
		   
AcordesyTabs.com © 2008 Acordes y Tablaturas para guitarra. Tabs and Chords for guitar. Aviso Legal - Contacto
El uso de este sitio está sujeto a la aceptación de los términos y condiciones (23 usuarios online)