tablaturas, partituras y acordes para guitarra
Busca por banda/artista:
 
y/o título de la canción:
A B C D E F G H I J K L M N O P Q R S T U V W X Y Z 0 1 2 3 4 5 6 7 8 9 / Top 100 tabs
Categorías
Usuarios
usuario:
Darse de alta
password:
Artistas más visitados
Publicidad
TOP acordes y tablaturas de Grateful Dead


Estás en: Inicio > Letra G > Acordes y tablaturas de Grateful Dead > Friend Of The Devil 2nd Guitar
Friend Of The Devil 2nd Guitar
de Grateful Dead
Puntúa este acorde/tab:      
(0.1/5)
Reportar este acorde/tab
  Añadir a tus favoritos
  Imprimir
                                  
this is the part that goes over the first guitar. it’s pretty cool. listen to th





E-------------------------------------------------------------------------------
B-------------------------------------------------------------------------------
G------------0--------------0---------------------------0-----------0----0----0-
D-----------------7-h9--0-------------------9-9-9-p7-------------------7--------
A---5^6^7------------------------5^6^7-----------------------5^6^7-----------7--
E-------------------------------------------------------------------------------

E-------------------------------------------------------------------------------
B-------------------------------------------------------------------------------
G---0-0-0-4-0—0-457---7h9—7s5—5-5---0-0-0-4-0—0-457---0-0-9-0—7—5----5-5-4-00---
D-----------------------------------------------------------------------------4-
A-------------------------------------------------------------------------------
E-------------------------------------------------------------------------------

                                 email me at mmetzger3@hotmail.com and tell me h
                            it's the first one i've done
             
		   
AcordesyTabs.com © 2008 Acordes y Tablaturas para guitarra. Tabs and Chords for guitar. Aviso Legal - Contacto
El uso de este sitio está sujeto a la aceptación de los términos y condiciones (49 usuarios online)