tablaturas, partituras y acordes para guitarra
Busca por banda/artista:
 
y/o título de la canción:
A B C D E F G H I J K L M N O P Q R S T U V W X Y Z 0 1 2 3 4 5 6 7 8 9 / Top 100 tabs
Categorías
Usuarios
usuario:
Darse de alta
password:
Artistas más visitados
Publicidad
TOP acordes y tablaturas de Los Visitantes


Mamita Dulce
de Los Visitantes
Puntúa este acorde/tab:      
(0.3/5)
Reportar este acorde/tab
  Añadir a tus favoritos
  Imprimir
INTRO:
    
e-|----------------------|----|-
B-|-----------------8----|----|-
G-|---------------7---7--|----|-
D-|-5--7-9-10---7---5----|----|-
A-|---------------5---5--|-x4-|-
E-|-3--5-7--8---5--------|----|-
                                                                              
N.C. (con intro)
Saliendo para volver
volviendo por tu querer
Saliendo para volver
volviendo por tu querer
G
mi mano en tu vientre
                    D
a eso yo llamo belleza
papusa brillando al despertar
C             G
SENSUAL MAMBO pa´ festejar
  C                       D
papusa brillando al despertar
                       G      G7
SENSUAL MAMBO pa´ festejar

C
Ay ay ay mama
mi mano en tu vientre
           G     G7
a aun mas abajo
C
Ay ay ay mama
vos sos lo mas lindo 
que vi en mi vida
             G
aquí en este barro
             D
aquí en este barro

    C               G                  D
e-|-----------0-----------------|----|-------------------------------|-
B-|-1p0---0-1---3-1-0-------1---|----|----------------------1-1--1-3-|-
G-|-----2-------------2-0h2---0-|----|---------------2-2--2----------|-
D-|-----------------------------|-x3-|-0-0--0-4-4--4-----------------|-
A-|-----------------------------|----|-------------------------------|-
E-|-----------------------------|----|-------------------------------|-

Saliendo para volver
volviendo por tu querer
Saliendo para volver
volviendo por tu querer
mi mano en tu vientre
a eso yo llamo belleza
papusa brillando al despertar
SENSUAL MAMBO pa´ festejar
papusa brillando al despertar
SENSUAL MAMBO pa´ festejar


Ay ay ay mama
mi mano en tu vientre
y aun mas abajo
Ay ay ay mama
vos sos lo mas lindo 
que vi en mi vida
aquí en este barro
aquí en este barro

Saliendo para volver
volviendo por tu querer
Saliendo para volver
              D  G
volviendo por tu querer
		   
AcordesyTabs.com © 2008 Acordes y Tablaturas para guitarra. Tabs and Chords for guitar. Aviso Legal - Contacto
El uso de este sitio está sujeto a la aceptación de los términos y condiciones (29 usuarios online)