tablaturas, partituras y acordes para guitarra
Busca por banda/artista:
 
y/o título de la canción:
A B C D E F G H I J K L M N O P Q R S T U V W X Y Z 0 1 2 3 4 5 6 7 8 9 / Top 100 tabs
Categorías
Usuarios
usuario:
Darse de alta
password:
Artistas más visitados
Publicidad
TOP acordes y tablaturas de Jones rickie lee


Estás en: Inicio > Letra J > Acordes y tablaturas de Jones rickie lee > Chuck es in love
Chuck es in love
de Jones rickie lee
Puntúa este acorde/tab:      
(0.3/5)
Reportar este acorde/tab
  Añadir a tus favoritos
  Imprimir

Received: from animal-farm.nevada.edu by redrock.nevada.edu (5.65c/M1.4)
	with SMTP id <AA18564>; Sun, 13 Jun 1993 12:43:02 -0700
Received: from iesd.auc.dk by animal-farm.nevada.edu id <AA29777@animal-farm.nevada.edu>; Sun, 13 Jun 1993 12:42:59 -0700
Received: from galilei.iesd.auc.dk by iesd.auc.dk with SMTP id AA10282
  (5.65c8/IDA-1.5/MD for <jamesb@nevada.edu>); Sun, 13 Jun 1993 21:41:00 +0200
Received: by galilei.iesd.auc.dk id AA00550
  (5.65c8/IDA-CLIENT/MD); Sun, 13 Jun 1993 21:44:51 +0200
Date: Sun, 13 Jun 1993 21:44:51 +0200
From: Claus Myltoft <myltoft@iesd.auc.dk>
Message-Id: <199306131944.AA00550@galilei.iesd.auc.dk>
To: jamesb@animal-farm.nevada.edu
Subject: j/Jones.Rickie.Lee/ChuckEsInLove.tab


Chuck E's in love  -  Rickie Lee Jones

Just the intro:

E---------------2121-|---------------------------|
B--3---------3--3232-|-3---------3-3-35-0h2-0---|
G--------2h4----2121-|-------2h4-----------------|
D----2h4----------------|---2h4---------------------|
A--5--------------------|-5-------------------------|
e-----------------------|---------------------------|

E---------------2121-|---------------------------|
B--3---------3--3232-|-3---------3---3-----------|
G--------2h4----2121-|-------2h4-----------------|
D----2h4----------------|---2h4---------------------|
A--5--------------------|-5-------------5-----------|
e-----------------------|---------------------------|



		   
AcordesyTabs.com © 2008 Acordes y Tablaturas para guitarra. Tabs and Chords for guitar. Aviso Legal - Contacto
El uso de este sitio está sujeto a la aceptación de los términos y condiciones (27 usuarios online)