tablaturas, partituras y acordes para guitarra
Busca por banda/artista:
 
y/o título de la canción:
A B C D E F G H I J K L M N O P Q R S T U V W X Y Z 0 1 2 3 4 5 6 7 8 9 / Top 100 tabs
Categorías
Usuarios
usuario:
Darse de alta
password:
Artistas más visitados
Publicidad
TOP acordes y tablaturas de Alejandro Sanz


Estás en: Inicio > Letra A > Acordes y tablaturas de Alejandro Sanz > Si tu no vuelves
Si tu no vuelves
de Alejandro Sanz
Puntúa este acorde/tab:      
(0.5/5)
Reportar este acorde/tab
  Añadir a tus favoritos
  Imprimir
Esta es una correccion. Si esta mal me disculpan!
Se la dedico a mi princesita preciosa Cindy que la quiero 
tanto como a mi guitarra (ella es mi música: que tierna!) Y le 
mando un saludo a todos esos guitarristas que tocan no para 
la gente si no para si mismos… PURA VIDA!!!
Mi niña te arrullo? u_u

INTRODUCCION:

F#, Am#, F#, Am#

E---------2--------------1------
B-----2--------------2----------
G---3---3----------3---3--------	x2
D-------------------------------
A--------------1----------------
E-2-----------------------------



F#                        A#m                                    
si tu no vuelves, se secaran todos los mares
       B                       A#m
y esperare sin ti, tapiado al fondo de algun recuerdo
F#                         A#m
si tu no vuelves, mi voluntad se hara pequeña
        B                   A#m            
me quedare aqui, junto a mi perro espi-ando horizontes

E----------------------------9*-9--9/11-----
B—-11—9-7-6-7--/--11—9—7-6-7----------------
G-------------------------------------------

E-------------------------------------------
B--11-11-9-7-6-7--11-11-9-7-6-7-------------
G-------------------------------3*-3--6-----

* SOSTENER LA NOTA

F#                        A#m
si tu no vuelves, no quedaran mas que desiertos
         B                      A#m
y escuchare por si, algun latido le queda a esta tierra 

                F#                                    
que era tan pequena cuando me querias,
                   A#m
habia un perfume fresco que yo respiraba,
           B                                 A#m
era tan bonita , era asi de grande y no tenia fin.
        F#                                  A#m               
y cada noche vendra una estrella a hacerme compania
      
  B                           C#  
que te cuente como estoy,y sepas lo que hay
       F#                           A#m
dime amor, amor, amor estoy aqui no ves
         B                                C#
si no vuelves, no habra vida, no se lo que hare
          

E-------------------9*--9-6--11-6--9-6--11-6--9-------
B---7--6--7--6--7-------------------------------7-9*--
G-6---6--6--6--6--6-----------------------------------

E----------------------------9*-9--9/11-------
B—-11—9-7-6-7--/--11—9—7-6-7------------------
G---------------------------------------------

E---------------------------------------------
B--11-11-9-7-6-7--11-11-9-7-6-7---------------
G-------------------------------3*-3--6-------


 F#                   A#m   
si tu no vuelves, no habra esperanza, ni habra nada
         B                   A#m
Y quedare aqui, atado al fondo de algun recuerdo
                 F#
que era tan serena cuando me querias,
                   A#m
habia un perfume fresco que yo respiraba,
           B                                 C#
era tan bonita , era asi de grande y no tenia fin.
        F#                                  A#m               
y cada noche vendra una estrella a hacerme compania
        B                           C#  
que te cuente como estoy,y sepas lo que hay
       F#                           A#m
dime amor, amor, amor estoy aqui no ves
         B                                C#
si no vuelves, no habra vida, no se lo que hare
          
- UNA VEZ MAS

        F#                                  A#m               
y cada noche vendra una estrella a hacerme compania
        B                           C#  
que te cuente como estoy,y sepas lo que hay
     
  F#                           A#m
dime amor, amor, amor estoy aqui no ves
         B                                C#
si no vuelves, no habra vida, no se lo que hare

- GRACIAS ALEJANDRO 

E-------------------9*--9-6--11-6--9-6--11-6--9-------
B---7--6--7--6--7-------------------------------7-9*--
G-6---6--6--6--6--6-----------------------------------

E----------------------------9*-9--9/11-------
B—-11—9-7-6-7--/--11—9—7-6-7------------------
G---------------------------------------------

E---------------------------------------------
B--11-11-9-7-6-7--11-11-9-7-6-7---------------
G-------------------------------3*-3--6-------
		   
AcordesyTabs.com © 2008 Acordes y Tablaturas para guitarra. Tabs and Chords for guitar. Aviso Legal - Contacto
El uso de este sitio está sujeto a la aceptación de los términos y condiciones (35 usuarios online)