tablaturas, partituras y acordes para guitarra
Busca por banda/artista:
 
y/o título de la canción:
A B C D E F G H I J K L M N O P Q R S T U V W X Y Z 0 1 2 3 4 5 6 7 8 9 / Top 100 tabs
Categorías
Usuarios
usuario:
Darse de alta
password:
Artistas más visitados
Publicidad
TOP acordes y tablaturas de Carnaval de Cadiz


Estás en: Inicio > Letra C > Acordes y tablaturas de Carnaval de Cadiz > Si tu quieres ser feliz
Si tu quieres ser feliz
de Carnaval de Cadiz
Puntúa este acorde/tab:      
(0.2/5)
Reportar este acorde/tab
  Añadir a tus favoritos
  Imprimir
La rumba la comienzo con un pequeño punteado a modo de introducción:

   __La m__
  |        |
1|--------0----00-5^0-00-------------------
2|--------1-------------313--3>5-----------
3|-----22-2--------------------------------
4|-2222------------------------------------
5|-----------------------------------------
6|-----------------------------------------

                                       Lam
1|-----5555-753--3333-531--1111-310-----0--
2|-555----------------------------------1--
3|--------------------------------------2--
4|--------------------------------------2--
5|--------------------------------------0--
6|-----------------------------------------
          
1|--------0----00-5^0-00-------------------
2|--------1-------------313--3>5-----------
3|-----22-2--------------------------------
4|-2222------------------------------------
5|-----------------------------------------
6|-----------------------------------------

Mim
Si tu quieres ser feliz
                   Sim 
Vente conmigo a la luna
                        Do 
Que alli juntos encontraremos
                Si7
La verdadera fortuna


ESTRIBILLO:
Mim
Cuchiviri, cuchiviri , cuchiviri chi chi…  |
Sim                                        | 2 veces 
Cuchiviri, cuchiviri , cuchiviri chi chi…  | 


Mim                       
Si tu quieres ser feliz,  uh uuh
                   Sim        Mim
Vente conmigo a la luna,  ah aah

Mim
Si tu quieres ser feliz,  uh uuh
                   Sim  
Vente conmigo a la luna
                        Do
Que alli juntos encontraremos
                Si7
La verdadera fortuna


( ESTRIBILLO )

Mim
Alli podremos vivir, uh uuh
                   Sim        Mim
Sin pagar contribuciones, ah aah

Mim
Alli podremos vivir, uh uuh
                   Sim
Sin pagar contribuciones
                    Do
Sin abusos y sin problemas
                Si7
Y sin contaminaciones


Do                          Sim
Quiero, que te vengas a la luna
                        Do
Porque alli esta la fortuna
                 Si7
Y nuestra felicidad


Do                     Sim
Solos, en la luna viviremos
                    Do
Ni un momento mas dudemos
                     Si7 
Que a la luna vamos yaaa


( ESTRIBILLO )

Mim
Vamonos pronto mi mi amor, uh uuh
                      Sim       Mim
Sin que llegue a los oidos, ah aah

Mim
Vamonos pronto mi amor, uh uuh
                      Sim
Sin que llegue a los oidos
                      Do
Que pronto estará la luna 
                  Si7
Igual que torremolinos


( ESTRIBILLO 5 VECES )
                                  

Mim = Mi menor    = 022000
Sim = Si menor    = 224432       
Do = Do M         = 332010       
Si7 = Si séptima  = 021202       
Lam = La menor    = 002210 

Esta canción va dedicada a mi CIBERMUJER 

( La + guapa, tia buena, presiosa, cuerpaso, portento ... )
		   
AcordesyTabs.com © 2008 Acordes y Tablaturas para guitarra. Tabs and Chords for guitar. Aviso Legal - Contacto
El uso de este sitio está sujeto a la aceptación de los términos y condiciones (22 usuarios online)