tablaturas, partituras y acordes para guitarra
Busca por banda/artista:
 
y/o título de la canción:
A B C D E F G H I J K L M N O P Q R S T U V W X Y Z 0 1 2 3 4 5 6 7 8 9 / Top 100 tabs
Categorías
Usuarios
usuario:
Darse de alta
password:
Artistas más visitados
Publicidad
TOP acordes y tablaturas de los Panchos


Sin un amor
de los Panchos
Puntúa este acorde/tab:      
(0.5/5)
Reportar este acorde/tab
  Añadir a tus favoritos
  Imprimir
Tonada: Em (Mi menor)

Este es tan solo el requinto al principio.

                                   Em (Mi menor)
e|------------0-------------------|--------------------------------|
b|----1---3-------3---1---0-------|0---0---0-1-3-1-0---------------|
g|----------------------------2---|------------------2-0-------0-1-|
d|--------------------------------|----------------------4-2-4-----|


  B7 (Si septima)                  Em (Mi menor)
e|--------------------------------|--------------------------------|
b|--------0---1---0---------------|--------------------------------|
g|2---2---------------2---0---2-1-|0---------------------------0-1-|
d|--------------------------4-----|----------------1---2---3-4-----|


  Am (La menor)                    Em (Mi menor)
e|------------0-------------------|--------------------------------|
b|----1---3-------3---1---0-------|0---0---0-1-3-1-0---------------|
g|2---------------------------2---|------------------2-0-------0-1-|
d|--------------------------------|----------------------4-2-4-----|


  B7 (Si septima)                  Em (Mi menor)
e|--------------------------------|--------------------------------|
b|--------0---1---0---------------|--------------------------------|
g|2---2---------------2---0-------|--------------------------------|
d|----------------------------4---|2-------------------------------|


     E a d g b e
     - - - - - -     
Em = 0 2 2 0 0 0
B7 = x 2 1 2 0 2 
B7 = x 2 4 2 4 2
Am = x 0 2 2 1 0
		   
AcordesyTabs.com © 2008 Acordes y Tablaturas para guitarra. Tabs and Chords for guitar. Aviso Legal - Contacto
El uso de este sitio está sujeto a la aceptación de los términos y condiciones (15 usuarios online)