tablaturas, partituras y acordes para guitarra
Busca por banda/artista:
 
y/o título de la canción:
A B C D E F G H I J K L M N O P Q R S T U V W X Y Z 0 1 2 3 4 5 6 7 8 9 / Top 100 tabs
Categorías
Usuarios
usuario:
Darse de alta
password:
Artistas más visitados
Publicidad
TOP acordes y tablaturas de Música de VideoJuegos


Mario Bros
de Música de VideoJuegos
Puntúa este acorde/tab:      
(0.3/5)
Reportar este acorde/tab
  Añadir a tus favoritos
  Imprimir
esto es para los videojugadores fanaticos
es del clasico mario
aunque solo es una parte espero les sirva de algo


Esto es en la primera escena

e|---------------- 3------|
B|---5-5--5-----5--3------|
G|---5-5--5---5-------0---|
D|---3-3--3---------------|
A|------------------------|
E|------------------------|
   Ta-Ta, Ta, Ta-Ta,TA! Tu... 

o en una sola cuerda

e|--0-0-0---0--3-----------|
B|--------1----------------|
G|----------------0--------|
D|-------------------------|
A|-------------------------|
E|-------------------------|

=============================================================
Esto es cuando se mete en un tunel
esta es mas fácil de sacar.

e|------------------------------------------|
B|------------------------------------------|
G|------------------------------------------|
D|---10----7----8--------------10----7----8-|
A|------------------------------------------|
E|-8-----5----6--------------8-----5----6---|

e|------------------------------------------|
B|------------------------------------------|
G|---10----7----8--------------10----7----8-|
D|------------------------------------------|
A|-8-----5----6--------------8-----5----6---|
E|------------------------------------------|

e|------------------------------------------|
B|------------------------------------------|
G|------------------------------------------|
D|-13-12-11-10------13-12-------11-10-------|
A|------------------------11-10-------------|
E|------------------------------------------|

e|------------------------------------------|
B|------------------------------------------|
G|----------15-14-13------------------------|
D|-16-15-14----------13---------------------|
A|----------------------14-13-12-11---------|
E|------------------------------------------|

aunque mucha gente toca solo esto

e|-----------------------
B|-----------------------
G|-----------------------
D|-----------------------
A|------3-3--0-0--1-1----
E|-----------------------


e|-----------------------
B|-----------------------
G|-----------------------
D|------3-3--0-0--1-1----
A|-----------------------
E|-----------------------

bueno eso es todo lo que he pododo sacar de mario
tengo poco en la guitarra
espero te sirva
		   
AcordesyTabs.com © 2008 Acordes y Tablaturas para guitarra. Tabs and Chords for guitar. Aviso Legal - Contacto
El uso de este sitio está sujeto a la aceptación de los términos y condiciones (9 usuarios online)