tablaturas, partituras y acordes para guitarra
Busca por banda/artista:
 
y/o título de la canción:
A B C D E F G H I J K L M N O P Q R S T U V W X Y Z 0 1 2 3 4 5 6 7 8 9 / Top 100 tabs
Categorías
Usuarios
usuario:
Darse de alta
password:
Artistas más visitados
Publicidad
TOP acordes y tablaturas de Mago De Oz


Maritorres
de Mago De Oz
Puntúa este acorde/tab:      
(0.8/5)
Reportar este acorde/tab
  Añadir a tus favoritos
  Imprimir
Riff 1 (hasta el 0:21)         
G|--------------------------------------------------------
D|-----------2------------2------------0------------0-----
A|---------3---3--------3---3--------2---2--------2---2---  x3
E|---5-555--------5-555--------3-333--------3-333---------

G|------------------------------------------|------------------
D|-----------2------------2------------0----|------------------
A|---------3---3--------3---3--------2---2--|--7-5---5---------
E|---5-555--------5-555--------3-333--------|------8---8-7-5---

Riff 2  (0:22 - 1:01)     (por ti cariño encogería la noche...)
G|------------------------------------
D|------------------------------------
A|---------5--5-3----------5--5-3-----   
E|---5--3---------3---5--3--------3---

G|--------------------------------------------------
D|--------------------------------------------------
A|-----------------55555----------------5-55-55-5---
E|---55555--33333---------55555--33333--------------

G|--------------------------------------------------
D|----------------2-----------2---------------------
A|--------------3---3-------3---3-------------------
E|---8-3--5-555-------5-555--------8-3--5-8-8-7-5---

G|---------------------------------------------------------------------
D|--------------2-----------2------------------------------------------
A|------------3---3-------3---3--------2-33---2-33--2-------2-3-2------
E|--8-3-5-555-------5-555-------8-3--5------5---------5-3-5-------5-3--

Riff 1 (1:02 - 1:11)         
G|--------------------------------------------------------
D|-----------2------------2------------0------------0-----
A|---------3---3--------3---3--------2---2--------2---2---  
E|---5-555--------5-555--------3-333--------3-333---------

G|------------------------------------------|------------------
D|-----------2------------2------------0----|------------------
A|---------3---3--------3---3--------2---2--|--7-5---5---------
E|---5-555--------5-555--------3-333--------|------8---8-7-5---

Riff 2  (1:12 - 1:51)     (por ti cariño robaría una estrella...)
G|------------------------------------
D|------------------------------------
A|---------5--5-3----------5--5-3-----   
E|---5--3---------3---5--3--------3---

G|--------------------------------------------------
D|--------------------------------------------------
A|-----------------55555----------------5-55-55-5---
E|---55555--33333---------55555--33333--------------

G|--------------------------------------------------
D|----------------2-----------2---------------------
A|--------------3---3-------3---3-------------------
E|---8-3--5-555-------5-555--------8-3--5-8-8-7-5---

G|---------------------------------------------------------------------
D|--------------2-----------2------------------------------------------
A|------------3---3-------3---3--------2-33---2-33--2-------2-3-2------
E|--8-3-5-555-------5-555-------8-3--5------5---------5-3-5-------5-3--

Riff 3 (1:51 - 2:57)         
G|--------------------------------------------------------
D|-----------2------------2------------0------------0-----
A|---------3---3--------3---3--------2---2--------2---2---  
E|---5-555--------5-555--------3-333--------3-333---------

G|------------------------------------------|------------------
D|-----------2------------2------------0----|------------------
A|---------3---3--------3---3--------2---2--|--7-5---5---------
E|---5-555--------5-555--------3-333--------|------8---8-7-5---

G|------------------------------------------------------
D|---------7-8-9-------9-8-7--------5-6-7-------8-7-6---
A|---77777-------77777--------55555-------55555---------  x2
E|------------------------------------------------------

G|--------------------------------------------------------------------
D|----------------5------------------5----------5-6-7----------8-7-6--
A|---7-777--7-5-7---7-5--7-777-7-5-7----5-55-55--------5-55-55--------
E|--------------------------------------------------------------------

G|---------------------------------------------------------   esta parte no
D|-----------------------------555-------------4---3-4-3---   se oye mucho 
A|---777777--55555555--777777------888-777-555---7---------    por el solo 
E|---------------------------------------------------------    de guitarra

G|--------------------------------------------
D|--------------------------------------------    
A|---7-777-7-777-7-77777--9-999-9-999-9-999---  
E|--------------------------------------------

G|-------------------------------------------------------------------
D|-------------------------------------------------------------------
A|---------------3-3333-33-------------------------3-3333-33---------  x2
E|--5-5555-55-55-----------3-3333-33--5-5555-55-55-----------3333-5--

Hay una pausa donde solo entra la guitarra y después comienza el bajo a partir de 3:02

Riff 1 (3:02 - 3:16)         
G|--------------------------------------------------------
D|-----------2------------2------------0------------0-----
A|---------3---3--------3---3--------2---2--------2---2---  x2
E|---5-555--------5-555--------3-333--------3-333---------

G|------------------------------------------|------------------
D|-----------2------------2------------0----|------------------
A|---------3---3--------3---3--------2---2--|--7-5---5---------
E|---5-555--------5-555--------3-333--------|------8---8-7-5---

Riff 2’  (3:16 - 1:01)     (viéndose sumido en tales pensamientos...)
G|----------------------------------------
D|----------------------------------------
A|---------5--5-3----------5--5-5-5-5-----   
E|---5--3---------3---5--3------------3---
G|--------------------------------------------------
D|--------------------------------------------------
A|-----------------55555----------------5-55-55-5---
E|---55555--33333---------55555--33333--------------

G|--------------------------------------------------
D|----------------2-----------2---------------------
A|--------------3---3-------3---3-------------------
E|---8-3--5-555-------5-555--------8-3--5-8-8-7-5---

G|------------------------------------------------------------
D|--------------2-----------2---------------------------------
A|------------3---3-------3---3--------2-33-----------3-2-----
E|--8-3-5-555-------5-555-------8-3--5-------5555555------5---

G|--------------------------------------------------
D|----------------2-----------2---------------------
A|--------------3---3-------3---3-------------------
E|---8-3--5-555-------5-555--------8-3--5-8-8-7-5---

G|---------------------------------------------------------------------
D|--------------2-----------2------------------------------------------
A|------------3---3-------3---3--------2-33---2-33--2-------2-3-2------
E|--8-3-5-555-------5-555-------8-3--5------5---------5-3-5-------5-3--

G|--------------------------------------------------------
D|--------------------------------------------------------
A|-------2-3-2--------2-3-2--------2-3-2--------2-3-2-----
E|---3-5-------5--3-5-------5--3-5-------5--3-5-------5---

Outro

G|------------
D|------------
A|------------
E|---55-3-5---


En muchos temas de Mägo toda la canción es relativamente clara 
hasta la parte de los solos de guitarra, por eso algunas partes 
de riff 3 no están muy claras pero no importa mucho por que lo 
que más se oye es la guitarra y no el bajo.

Comentarios o sugerencias: javierthellaeche@hotmail.com
		   
AcordesyTabs.com © 2008 Acordes y Tablaturas para guitarra. Tabs and Chords for guitar. Aviso Legal - Contacto
El uso de este sitio está sujeto a la aceptación de los términos y condiciones (20 usuarios online)