tablaturas, partituras y acordes para guitarra
Busca por banda/artista:
 
y/o título de la canción:
A B C D E F G H I J K L M N O P Q R S T U V W X Y Z 0 1 2 3 4 5 6 7 8 9 / Top 100 tabs
Categorías
Usuarios
usuario:
Darse de alta
password:
Artistas más visitados
Publicidad
TOP acordes y tablaturas de La Vela Puerca


Sin Palabras
de La Vela Puerca
Puntúa este acorde/tab:      
(0.5/5)
Reportar este acorde/tab
  Añadir a tus favoritos
  Imprimir
Bueno, podes tocar este tab sin problemas, es tan facil.  
A mi me encanta la cancion, pero ta.  Es un inedito de 
la vela por ahora, pero para mi sale bien.  
No lo dedico a nadie, asique yo no lo escribi, pero mando saludos 
a Ana alla en Solymar, Uruguay.  Que vas a hacer este sabado???
Ta, que diviertas con este tema de la vela.

Att:  El ^ significa el 'beat'


Intro:
   ^   ^   ^   ^    ^   ^   ^   ^
E------------------------------------------
B--1---1---1---1----1---1---1---1----------
G--0---0---0---0----0---0---0---0----------
D--3---2---0--------3---2---0--------------
A--------------3----------------3----------
E------------------------------------------

La Parte de harmonica va sobre esto

  ^         ^       ^      ^
E-------------------------------------------
B-----1---------1-------1-------1-----------
G---0--0------0--0----0--0----0--0----------
D-3---------2-------0-----------------------
A--------(3)---------------3----------------
E-------------------------------------------

harmonica:
        
  ^      ^        ^        ^       ^      ^      ^       ^
E-8--7-5-----------------3-5-3-3---8--7-5------------------
B--------8--6-5---3-5-6-------------------8--6-5-6-5-3-5---
G--------------------------------------------------------5--

Tocas la parte del Harmonica dos veces con el riff, 
despues empezas a cantar, y es casi lo mismo, pero no 
escucho el (3).  Entonces va algo asi.

  ^         ^       ^       ^
E-------------------------------------------
B-----1---------1-------1-------1-----------
G---0--0------0--0----0--0----0--0----------
D-3---------2-------0-----------------------
A---------------------------3---------------
E-------------------------------------------

^        ^     ^     ^
 Voy hablando sin palabras
 Voy mirando  sin   ojos
 Aga--rando   sin las manos
 Viv--iendo   sin corazon


Al camino que eligi
Yo no se que me llevo
Si las vueltas de la vida
O si las vueltas las di yo

Ojala que las palabras
Que hablan de la soledad
Busquen un acompaniante
Y no hablan solo por hablar.... yadai dai dai

Corre humo por mis venas
Con un fuerte olor dulzon
No tengo noticias tuyas
Y ya perdi la razon

Tengo miedo en el olvido
Y me mata el ansiedad
En ese tiempo de distancia
Vive lo que no se da

Ojala que cuando vuelvas
Si decidas volver
Vuelvas con la frente en alto
Para que lo puedas ver

Dai, Dai, Dai....

(Una vez la parte con harmonica, y termina con un Do, C Mayor)
		   
AcordesyTabs.com © 2008 Acordes y Tablaturas para guitarra. Tabs and Chords for guitar. Aviso Legal - Contacto
El uso de este sitio está sujeto a la aceptación de los términos y condiciones (97 usuarios online)