tablaturas, partituras y acordes para guitarra
Busca por banda/artista:
 
y/o título de la canción:
A B C D E F G H I J K L M N O P Q R S T U V W X Y Z 0 1 2 3 4 5 6 7 8 9 / Top 100 tabs
Categorías
Usuarios
usuario:
Darse de alta
password:
Artistas más visitados
Publicidad
TOP acordes y tablaturas de Miguel Bosé


Más Allá
de Miguel Bosé
Puntúa este acorde/tab:      
(0.5/5)
Reportar este acorde/tab
  Añadir a tus favoritos
  Imprimir
ACORDES
  C    Em7/B   Am7   Fmaj7   G/B     G5     G     Dm7
e - 0  e - 3  e - 0  e - 0  e - 1  e - 3  e - 1  e - 1
B - 1  B - 3  B - 1  B - 1  B - 3  B - 3  B - 0  B - 1 
G - 0  G - 0  G - 0  G - 2  G - 0  G - 0  G - 0  G - 2
D - 2  D - 0  D - 2  D - 3  D - 0  D - 0  D - 0  D - 0
A - 3  A - 2  A - 0  A - 3  A - 2  A - 2  A - 2  A - X
E - X  E - X  E - 0  E - 0  E - X  E - 3  E - 3  E - X


INTRO
    C         Em      Am  F   C         Em      Am      F         Fm    C
e --0-0-0-0-0---0-1-3-5-3-0---0-0-0-0-0---0-1-3-8-7-8-7-5---1-0---4-3-1-0--|
B --1---------3-------5---1---1---------3-------5-------6-------2-1-----1--|
G --2-----------------5---2---2-----------------5-------5---------1-----0--|
D ------------------------3-----------------------------7---------3-----2--|
A --3---------2-------0---3---3---------2-------0-----------------------3--|
E -------------------------------------------------------------------------|

C               Em7/B        Am7  Fmaj7      
Más allá de mis manos, mucho más allá
C               Em7/B       Am7  Fmaj7      
más allá de mis ojos, mucho más allá
G/B		       C    G/B        C      
veo el cielo y oigo el mar, mucho más allá
G/B          Fmaj7         G5   Fmaj7  G5      
guardo los secretos que me das.



C              Em7/B         Am7     Fmaj7       
Que pequeño me siento cuando tú no estás
C              Em7/B        Am7 Fmaj7       
una hoja en el viento, un poema más
G/B		  C   G/B       C      
un dolor en el rincón de mi corazón
G/B            Fmaj7          G5   Fmaj7  G5      
más allá de distancias va mi amor.


 
       C	    Em7/B     Fmaj7       Cmaj7      
Que te quiero con locura y te quiero más allá
Am7		   Dm7		G5      
no es tan solo una frase y nada más,
     C		 Em7/B		Fmaj7		 Cmaj7      
recortando tus recuerdos y escribiendo en el cristal
Dm7	       G             C      
pongo freno al tiempo que se va.


PUENTE
     C         Em      Am  F   C         Em      Am      F         Fm    C
e --0-0-0-0-0---0-1-3-5-3-0---0-0-0-0-0---0-1-3-8-7-8-7-5---1-0---4-3-1-0--|
B --1---------3-------5---1---1---------3-------5-------6-------2-1-----1--|
G --2-----------------5---2---2-----------------5-------5---------1-----0--|
D ------------------------3-----------------------------7---------3-----2--|
A --3---------2-------0---3---3---------2-------0-----------------------3--|
E -------------------------------------------------------------------------|

 
C                 Em7/B        Am7  Fmaj7       
Más allá de estos muros, mucho más allá
C              Em7/B         Am7  Fmaj7       
más allá de mi puerta, mucho más allá
G/B               C    G/B        C      
duerme toda la ciudad, mucho más allá
G/B       Fmaj7        G5   Fmaj7  G5      
busco tópicos que deshojar. 
      


       C	    Em7/B     Fmaj7       Cmaj7      
Que te quiero con locura y te quiero más allá
Am7		   Dm7		G5      
no es tan solo una frase y nada más,
     C		 Em7/B		Fmaj7		 Cmaj7      
recortando tus recuerdos y escribiendo en el cristal
Dm7	       G             C      
pongo freno al tiempo que se va.

FINAL
             Em7/B     Fm7   C
e --8-7-8-10-3---0-----4-3-1-0--|
B -----------3-----3-1-1-----1--|
G ---------------------1-----0--|
D ---------------------3-----2--|
A -----------2---------------3--|
E ------------------------------|
		   
AcordesyTabs.com © 2008 Acordes y Tablaturas para guitarra. Tabs and Chords for guitar. Aviso Legal - Contacto
El uso de este sitio está sujeto a la aceptación de los términos y condiciones (5 usuarios online)