tablaturas, partituras y acordes para guitarra
Busca por banda/artista:
 
y/o título de la canción:
A B C D E F G H I J K L M N O P Q R S T U V W X Y Z 0 1 2 3 4 5 6 7 8 9 / Top 100 tabs
Categorías
Usuarios
usuario:
Darse de alta
password:
Artistas más visitados
Publicidad
TOP acordes y tablaturas de Counting crows


Anna begins
de Counting crows
Puntúa este acorde/tab:      
(0.4/5)
Reportar este acorde/tab
  Añadir a tus favoritos
  Imprimir

                     ANNA BEGINS -BASS

standard tuning, listen for exact rythem
intro just on E - open

verse 1
G----------------------------------------------
D----------------------------------------------
A-0-----0--0------0--0------------------------- 4x
E------------------------3-----3---3-----3--3--

bridge:
this isn't love...
G---------------------
D-------------0-------
A---------3----------- 4x
E0---0----------------

verse2.
G----------------------------------------------
D----------------------------------------------
A-0-----0--0------0--0------------------------- 2x
E------------------------3-----3---3-----3--3--

bridge2.

G---------------------
D-------------0-------
A---------3----------- 2x
E0---0----------------

pre-chorus
G------------------|--------------|
D---------------0--|---------2--0-|
A-----3----0-------|------0-------|2x
E-3----------------|--3-----------|

verse3.
G----------------------------------------------
D----------------------------------------------
A-0-----0--0------0--0------------------------- 4x
E------------------------3-----3---3-----3--3--

bridge3
G---------------------
D-------------0-------
A---------3-----------2x
E0---0----------------

pre-chorus/chorus
G------------------|--------------|
D---------------0--|---------2--0-|
A-----3----0-------|------0-------|5x
E-3----------------|--3-----------|
 
    it's chasing me away
G--------------------------
D--------------------------
A----------------3---------
E-3------------------------

     she   disapears and oh lord, 
G----------------------------------------------
D----------0---|-------------------------------
A-0----------------------------3---------------
E--------3---------------3---------------------

 im not ready for this sort of thing
G----------------------------------------------
D-2--------------0-----------------------------
A----------------------------------------------
E--------------------------------3-------------

that's all, later

		   
AcordesyTabs.com © 2008 Acordes y Tablaturas para guitarra. Tabs and Chords for guitar. Aviso Legal - Contacto
El uso de este sitio está sujeto a la aceptación de los términos y condiciones (17 usuarios online)