tablaturas, partituras y acordes para guitarra
Busca por banda/artista:
 
y/o título de la canción:
A B C D E F G H I J K L M N O P Q R S T U V W X Y Z 0 1 2 3 4 5 6 7 8 9 / Top 100 tabs
Categorías
Usuarios
usuario:
Darse de alta
password:
Artistas más visitados
Publicidad
TOP acordes y tablaturas de los Panchos


Sin Tí
de los Panchos
Puntúa este acorde/tab:      
(0.5/5)
Reportar este acorde/tab
  Añadir a tus favoritos
  Imprimir
SIN TI

Los Panchos

Autor:Pepe Guizar



Intro (requinto):

1|----------5-7-5-7-5---|-------------|-4-4-5-6-5-7-5-7-5-4-|

2|--2-3-4-5-----------7-|-0-2-0-------|---------------------|

3|----------------------|-------3-2-1-|---------------------|

4|----------------------|-------------|---------------------|

5|----------------------|-------------|---------------------|

6|--------------------- |-------------|---------------------|



1|-5-7-5-7-5-7-5-7-5-7-5-0---0-5-2-4-5-4-5-4-5-4-5-4-5-4-0---0-4-0-

2|-------------------------2-------------------------------2-------

3|-----------------------------------------------------------------

4|-----------------------------------------------------------------

5|-----------------------------------------------------------------

6|-----------------------------------------------------------------



1|-2-4-2-4-2-4-2-4-2-4-2-------2---0-|-0--

2|-----------------------3---3---3---|-3--

3|-------------------------2---------|-1--

4|-----------------------------------|-2--

5|-----------------------------------|-2--

6|-----------------------------------|-0--



    A

Sin ti

       E         C#m  A

no podre vivir jamas

                       

y pensar que nunca mas

     Eø         E7

estaras junto a mi.

    Bm

Sin ti, 

                     E7

que me puede ya importar

                           

si lo que me hace llorar

                 A  Eø Bm E7

esta lejos de aqu¡.

     A

Sin ti,

           E             C#m  A     

no hay clemencia en mi dolor

                        

la esperanza de mi amor

          A7      D   F#7 Bm

te la llevas por fin.

     D

Sin ti,

             A 

es inutil vivir

      Eø      Bm

como inutil sera

                 A

el quererte olvidar

		   
AcordesyTabs.com © 2008 Acordes y Tablaturas para guitarra. Tabs and Chords for guitar. Aviso Legal - Contacto
El uso de este sitio está sujeto a la aceptación de los términos y condiciones (24 usuarios online)