tablaturas, partituras y acordes para guitarra
Busca por banda/artista:
 
y/o título de la canción:
A B C D E F G H I J K L M N O P Q R S T U V W X Y Z 0 1 2 3 4 5 6 7 8 9 / Top 100 tabs
Categorías
Usuarios
usuario:
Darse de alta
password:
Artistas más visitados
Publicidad
TOP acordes y tablaturas de los Panchos


Sin Tí
de los Panchos
Puntúa este acorde/tab:      
(0.4/5)
Reportar este acorde/tab
  Añadir a tus favoritos
  Imprimir
PARA TOCR ADECUADAMENTE ESTE REQUINTO SE DEBE
UTILIZAR EL CAPOTRASTO EN EL 5º TRASTE POR LO
TANTOEL 0 QUIERE DECIR QUE SE SUELTA LA CUERDA 
LA CUALSONARÁ EN EL QUINTO TRASTE.


__      RIFF 1
                                          MIm
   1|---------------10--12--10--12--10------
 ) 2|--7--8--9--10----------------------12--
   3|---------------------------------------
   4|---------------------------------------
 ) 5|---------------------------------------
   6|---------------------------------------
__/


                     LA 7
__      RIFF 2
       
   1|---------------------------------------
 ) 2|--0--7--0------------------------------
   3|-----------8--7--6---------------------
   4|---------------------------------------
 ) 5|---------------------------------------
   6|---------------------------------------
__/


                                  
__      RIFF 3                   
       
   1|--9--10--9--10--11--12--10--12--10--9--
 ) 2|---------------------------------------
   3|---------------------------------------
   4|---------------------------------------
 ) 5|---------------------------------------
   6|---------------------------------------
__/


        RE    
_       RIFF 4
       
   1|--10--12--10--12--10--12--10--12--10--12--10--0-----0--10--0
 ) 2|-------------------------------------------------7----------
   3|------------------------------------------------------------
   4|------------------------------------------------------------
 ) 5|------------------------------------------------------------
   6|------------------------------------------------------------
__/


        FA#m
__      RIFF 5
       
   1|--9--10--9--10--9--10--9--10--9--10--9--0-----0--9--0-------
 ) 2|-------------------------------------------7----------------
   3|------------------------------------------------------------
   4|------------------------------------------------------------
 ) 5|------------------------------------------------------------
   6|------------------------------------------------------------
__/


        MIm                                                  LA 7
__      RIFF 6             
       
   1|--7--9--7--9--7--9--7--9--7--9--7-----------7-----7-----0
 ) 2|-----------------------------------8-----8-----8-----8---
   3|--------------------------------------9------------------
   4|---------------------------------------------------------
 ) 5|---------------------------------------------------------
   6|---------------------------------------------------------
__/


      RE
__      RIFF 7 (ESTE ACORDE SE TOCA DE 11 A 9 DE UN SOLO JALÓN)
       
   1|--9--------------------------------------
 ) 2|--10-------------------------------------
   3|--10-------------------------------------
   4|--11-------------------------------------
 ) 5|-----------------------------------------
   6|-----------------------------------------
__/



__      RIFF 8 
       
   1|--12--10--9--10------------------------
 ) 2|---------------------------------------
   3|---------------------------------------
   4|---------------------------------------
 ) 5|---------------------------------------
   6|---------------------------------------
__/




*************************************************************
Espero que les agrade y les voy a mandar mas tabs
Dudas y sugerencias ahi esta mi mail adios
*************************************************************
		   
AcordesyTabs.com © 2008 Acordes y Tablaturas para guitarra. Tabs and Chords for guitar. Aviso Legal - Contacto
El uso de este sitio está sujeto a la aceptación de los términos y condiciones (14 usuarios online)